Аккорды Nightwish - Ghost Love Score

Добавлено: @romashka
Дата добавления: 26 Сентября 2022г.
Рейтинг:
0.0
Просмотров: 28
Транспонировать - +
[Intro]
Dm Dm9   Dsus4 Dm    Bb Bbadd#11  Csus4 C
Dm Dm9   Dsus4 Dm    Bb Bbadd#11  Csus4 C
Dm Dm9   Dsus4 Dm    Bb Bbadd#11  Csus4 C
Dm Dm9   Dsus4 Dm    Bb Bbadd#11  Csus4 C

Fm Fm9   Fsus4 Fm    Db Dbadd#11  Ebsus4 Eb
Fm Fm9   Fsus4 Fm    Db Dbadd#11  Ebsus4 Eb

Dm Dm9   Dsus4 Dm    Bb Bbadd#11  Csus4 C
Dm Dm9   Dsus4 Dm    Bb Bbadd#11  Csus4 C

Fm Fm9   Fsus4 Fm    Db Dbadd#11  Ebsus4 Eb
Fm Fm9   Fsus4 Fm    Db Dbadd#11  Ebsus4 Eb

F5

[Verse 1]
F                   Cm             F
We used to swim the same moonlight waters
F                    Gb      F
Oceans away from the wakeful day

[Chorus]
Bbm                      Ab
My fall will be for you,   my love will be in you    (My)
Gb                       Ab
If you be the one to       cut me I’ll bleed forever (fall will)
Bbm                      Ab
My fall will be for you,   my love will be in you    (be)
Ebm                      F
If you be the one to       cut me I’ll bleed forever (for you)

[Verse 2]
F                  Cm              F
Scent of the sea before the waking of the world
F                   Gb             F
Brings me to thee into the blue memory

[Chorus]
Bbm                      Ab
My fall will be for you,   my love will be in you    (My)
Gb                       Ab
If you be the one to       cut me I’ll bleed forever (fall will)
Bbm                      Ab
My fall will be for you,   my love will be in you    (be)
Ebm                      F
If you be the one to       cut me I’ll bleed forever (for you)

[Post-Chorus]
Ebm      Db   Ab  Bbm
Into the blue memory

[Bridge 1]
Bbm Ab Bbm Ab
Bbm              Ab
A siren from the deep came to me
Bbm             Eb
Sang my name my longing
Fm               Cm     Bbm               Fm
Still I write my songs about that dream of mine
Bbm        Eb          Fm
Worth everything I may ever be

    Bbm           Ab
The Child will be born again
     Bbm           Eb
That siren carried him to me
Fm                 Cm    Bbm            Fm
First of them true loves singing on the shoulders
Bbm         Eb               Fm
Of an angel without care for love and loss

[Solo 1]
Cm Bb Cm F Gm Dm Cm Gm Eb F Gm

[Strings]
Gm Eb Gm F Gm
Eb F Gm
Eb F Gm
Eb F Gm
Eb F Gm
Eb F Gm
Eb F Gm

[Bell]
Gm Eb F Gm
Gm Eb F Gm
Gm Eb F Gm
Gm Eb F Gm

[Bridge 2]
Gm               F        Gm
Bring me home or leave me be
Gm             Eb   F            Gm
My love in the dark heart of the night
Gm              F           Gm
I have lost the path before me
Gm        Eb   F         Gm
The one behind will lead me
Bbm              Ab       Bbm

Bring me home or leave me be
Bbm            Gb   Ab           Bbm
My love in the dark heart of the night
Bbm             Ab          Bbm
I have lost the path before me
Bbm       Gb   Ab        Bm
The one behind will lead me

[Strings]
   Gm
e|-------------|------------|-------------|----------|-------------|-------------|-------------|----------|
B|-------------|------------|-------------|----3--2--|-------------|-------------|-------------|----4--3--|
G|-0---0-3-2-3-|-0--0-3-2-3-|-0---0-3-2-3-|-0--------|-0---0-3-2-3-|-0---0-3-2-3-|-0---0-3-2-3-|-0--------|
D|-------------|------------|-------------|----------|-------------|-------------|-------------|----------|
A|-------------|------------|-------------|----------|-------------|-------------|-------------|----------|
E|-------------|------------|-------------|----------|-------------|-------------|-------------|----------|

[Bridge 3]
   Gm
e|-------------|------------|------------|----------|
B|-------------|------------|------------|----3--2--|
G|-0---0-3-2-3-|0---0-3-2-3-|0---0-3-2-3-|0---------|
D|-------------|------------|------------|----------|
A|-------------|------------|------------|----------|
E|-------------|------------|------------|----------|
  Take me,     cure me,     kill me,    bring me home

   Gm                        D    Eb      E    F      E         Eb
e|-------------|------------|-----------------|---------------------|
B|-------------|------------|-----------------|---------------------|
G|-0---0-3-2-3-|0---0-3-2-3-|-----------------|---------------------|
D|-------------|------------|0----1-------3---|4------3---------1---|
A|-------------|------------|-----------------|---------------------|
E|-------------|------------|-----------------|---------------------|
Every way, every day,       just another loop in the hangman’s noose

Dm                               C#        Dm
Take me, cure me, kill me, bring me home
Dm                                       C# Dm
Every way, every day, I keep on watching us sleep
Dm                         C#  Dm
Relive the old sin of Adam and Eve
Dm                           C#    Gm
Of you and me, forgive the adoring beast

[Solo 2]
Gm F Eb
Bm Ab Gb

[Break]
G  Gb  F  E  Eb  D  Db
G  Gb  F  E  Eb  D
Db  D  Eb  E  F  Gb  G

Gm Eb F Gm
Gm Eb F Gm
Gm Eb F Gm
Gm Eb F Gm

Bm Gb Ab Bm
Bm Gb Ab Bm
Bm Gb Ab Bm
Bm Gb Ab Bm

Ab Bm Ab Eb

[Choir]
Bm Gb Ab
Bm Gb Ab

[Bridge 4]
Dm
Redeem me into childhood
Bb        C
Show me myself without the shell
Dm
Like the advent of May
Bb      C
I’ll be there when you say
Bb      C     Dm       Gm
Time to never hold our love

[Chorus]
Bbm                      Ab
My fall will be for you,   my love will be in you    (My)
Gb                       Ab
If you be the one to       cut me I’ll bleed forever (fall will)
Bbm                      Ab
My fall will be for you,   my love will be in you    (be)
Ebm                      F
If you be the one to       cut me I’ll bleed forever (for you)

Bbm                      Ab
My fall will be for you,   my love will be in you    (My)
Gb                       Ab
If you be the one to       cut me I’ll bleed forever (fall will)
Bbm                      Ab
My fall will be for you,   my love will be in you    (be)
Ebm                      F
If you be the one to       cut me I’ll bleed forever (for you)

[Outro]
Fm                       D
My fall will be for you,   my love will be in you
Gb                       Eb
If you be the one to       cut me I’ll bleed forever
Fm                       Eb
My fall will be for you,   my love will be in you
Bbm                      C
If you be the one to       cut me I’ll bleed forever 
Наверх