Аккорды Nirvana - Sappy

Добавлено: @romashka
Дата добавления: 01 Февраля 2017г.
Рейтинг:
0.0
Просмотров: 184
Транспонировать - +
Куплет 1:
And if you save yourself, you will make him happy
He'll keep you in a jar, and you'll, think you're happy
He'll give you breathin' holes, and you'll think you're happy
He'll cover you with grass, and you'll, think you're happy...

E|------------------------------------------
B|------------------------------------------
G|-6-66-666-------------------------4444----_x4
D|-6-66-666-7-77-4444-6-66-666-7-77-4444----/
A|-4-44-444-7-77-4444-6-66-666-7-77-2222----
E|----------5-55-2222-4-44-444-5-55---------
   C#5      A5   F#5  G#5      A5   B5  

Припев:

...now. You're in a laundry room, you're in a laundry room, Conclusion came to you,

E|-------------------------------------------------------------------------
B|-------------------------------------------------------------------------
G|-6-66-666----------------------------------------------------------------
D|-6-66-666-7-77-777-4-44-444-7-77-777-4-44-444-7-77-777-4-44-444-7-77-777-
A|-4-44-444-7-77-777-4-44-444-7-77-777-4-44-444-7-77-777-4-44-444-7-77-777-
E|----------5-55-555-2-22-222-5-55-555-2-22-222-5-55-555-2-22-222-5-55-555-
   C#5      A5       F#5      A5       F#5      A5       F#5      A5

Ooohhhhhhh...

E|------------------------------------------
B|------------------------------------------
G|------------------------------------------
D|-4-44-444--7-77-777-6~~~~~~~~~------------
A|-4-44-444--7-77-777-6~~~~~~~~~------------
E|-2-22-222--5-55-555-4~~~~~~~~~------------
   F#5       A5       G#5       

Куплет 2:
And if you cut yourself, you will think you're happy
He'll keep you in a jar, then you'll make him happy
He'll give you breathin' holes, then you'll think you're happy
He'll cover you with grass, then you'll think you're happy...

Припев

Соло:
E|----------------------------------------------------------------------
B|------------------------------------------------8B--------------------
G|--------------4-4/6-6-6/8--8-8-8-8B--8-8B-8-6-8-8B-8^10-8^10-8^9-8----
D|-------4-6-x-6--------------------------------------------------------
A|-2/4--6---------------------------------------------------------------
E|----------------------------------------------------------------------

E|-----------------------------------------------------------------------
B|-----------------------------------------------------------------------
G|-----------------------------------------------------------------------
D|-------------------------------------------------------1-2-2-2---------
A|----------------------------------------------1-1/2-2-4----------------
E|-7b-6B-6-4B-4-2-2-2p0-2-2B-2-0-0-1/2-2-2/4-4-4-------------------------

E|----------------------------------------------------------------------------
B|----------------------------------------------------------------------------
G|----------------------9b--11-11-9-11B--11-9---------------------------------
D|------6b-8-8/9-9/11-------------------------11--11-13-13B-13-13-13-11-11-11-
A|-6B-4-----------------------------------------------------------------------
E|----------------------------------------------------------------------------

E|-------------------------------------------------------------------------------------
B|-------------------------------------------------------------------------------------
G|-------------------------------------------------------------------------------------
D|-10/11-11-11-11-11-11-13-13B-14-13-13p14h13-11b-11/13-13-13~/11-11/9-9/8-8/6-6/4-4/2-
A|-------------------------------------------------------------------------------------
E|-------------------------------------------------------------------------------------

Куплет 3:
And if you fool yourself, you will make him happy
He'll keep you in a jar, then you'll think you're happy
He'll give you breathin' holes, then you'll wish him happy
You'll wallow in your shit, then you'll think you're happy...

Припев
Наверх