Аккорды Nirvana - The Man who sold the world

Добавлено: @romashka
Дата добавления: 25 Марта 2020г.
Рейтинг:
0.0
Просмотров: 83
Транспонировать - +
[Intro]
A  Dm  F  Dm

(with distortion); Repeat 6x
E|--------------------|- -|-----|-
B|--------------------|- -|-----|-
G|--2-2-2-0--2h3p2-0--|- -|--2~-|-
D|--------------------|- -|-----|-
A|--------------------|- -|-----|-
E|--------------------|- -|-----|- 
 
[Verse]
                    A                         Dm
We passed upon the stair, we spoke in was and when
                    A                          F
Although I wasn't there, he said I was his friend
                    C                         A
Which came as a surprise, I spoke into his eyes
                    Dm                      C
I thought you died alone, a long long time ago
 
 
[Chorus]

  C - Riff               F - Riff
E|-----------------|-  -|-----------------|-
B|-----------------|-  -|-----------------|-
G|-----------2-4-5-|-  -|-----------------|-
D|-----2-3-5-------|-  -|-----------0-2-3-|-
A|-3-5-------------|-  -|-----0-1-3-------|-
E|-----------------|-  -|-1-3-------------|-
 
C       F
Oh no, not me
C#              F
We never lost control
C            F
Your face to face
C#                          Intro
With The Man Who Sold The World

(with distortion); Repeat 6x
E|--------------------|- -|-----|-
B|--------------------|- -|-----|-
G|--2-2-2-0--2h3p2-0--|- -|--2~-|-
D|--------------------|- -|-----|-
A|--------------------|- -|-----|-
E|--------------------|- -|-----|- 
 
[Verse]
                         A                         Dm
I laughed and shook his hand, and made my way back home
                            A                         F
I searched for a foreign land, for years and years I roamed
                     C                         A
I gazed a gazeless stare, we walked a million hills
                    Dm                      C
I must have died alone, a long long time ago
 
 
[Chorus]

  C - Riff               F - Riff
E|-----------------|-  -|-----------------|-
B|-----------------|-  -|-----------------|-
G|-----------2-4-5-|-  -|-----------------|-
D|-----2-3-5-------|-  -|-----------0-2-3-|-
A|-3-5-------------|-  -|-----0-1-3-------|-
E|-----------------|-  -|-1-3-------------|-
 
C           F
Who knows? Not me
C#              F
I never lost control
C            F
Your face to face
C#                          Intro
With The Man Who Sold The World

(with distortion); Repeat 4x
E|--------------------|- -|-----|-
B|--------------------|- -|-----|-
G|--2-2-2-0--2h3p2-0--|- -|--2~-|-
D|--------------------|- -|-----|-
A|--------------------|- -|-----|-
E|--------------------|- -|-----|-  
 
[Chorus]

  C - Riff               F - Riff
E|-----------------|-  -|-----------------|-
B|-----------------|-  -|-----------------|-
G|-----------2-4-5-|-  -|-----------------|-
D|-----2-3-5-------|-  -|-----------0-2-3-|-
A|-3-5-------------|-  -|-----0-1-3-------|-
E|-----------------|-  -|-1-3-------------|- 
 
C           F
Who knows? Not me
C#              F
We never lost control
C            F
Your face to face
C#                          Intro
With The Man Who Sold The World

(with distortion); Repeat 6x
E|--------------------|- -|-----|-
B|--------------------|- -|-----|-
G|--2-2-2-0--2h3p2-0--|- -|--2~-|-
D|--------------------|- -|-----|-
A|--------------------|- -|-----|-
E|--------------------|- -|-----|-

Outro: (Not very accurate, but at least the right notes)
E|-------------------------------------------------------|
B|-------------------------------------------------------|
G|--2-2-2-0--2h3p2-0--2-2-2-0--2h3p2-0--/9-9-9-9-9-9-9-9-|
D|-------------------------------------------------------|
A|-------------------------------------------------------|
E|-------------------------------------------------------|

E|-------------------------------------------------------|
B|-------------------------------------------------------|
G|--2-2-2-0--2h3p2-0--2-2-2-0--2h3p2-0-/10-10-10-10-10--|
D|-------------------------------------------------------|
A|-------------------------------------------------------|
E|-------------------------------------------------------|

E|-------------------------------------------------------|
B|-------------------------------------------------------|
G|-9-7-7-7-7-7-7-/9-9-9-9-9-2-2-2-0-2h3p2-0-/10-10-10-|
D|-------------------------------------------------------|
A|-------------------------------------------------------|
E|-------------------------------------------------------|

E|-------------------------------------------------------|
B|-------------------------------------------------------|
G|-10-10-9-7-7-7-7-7-7-/9-9-9-9-9-2-2-2-0-2h3p2-0--2--|
D|-------------------------------------------------------|
A|-------------------------------------------------------|
E|-------------------------------------------------------|
Наверх