Аккорды Nirvana - Smells Like Teen Spirit

Добавлено: @romashka
Дата добавления: 03 Марта 2021г.
Рейтинг:
0.0
Просмотров: 80
Транспонировать - +
Вступление: F5 A#5  G#5  C#5 }x4

Куплет:

Гитара:
1-------------------------- x2 - До куплета  1-------------------------- x8 - Во время куплета
2----6---------------------                  2----6--------------------- 
3--5---5-------------------                  3--5-----------------------
4--------------------------                  4--------------------------                                                           
5--------------------------                  5--------------------------
6--------------------------                  6--------------------------

1-------------------------- x4 - Аутро куплета (hello, hello и тд.)
2----6-------6----6-----6--
3--5----5-5-----5---5-5----
4--------------------------
5--------------------------
6--------------------------

соmе out and play
make up the rules
it's not enough
to find it soon
i know i know
to dive thround
no i'm not
playing you 

hello hello hello how low 
hello hello hello how low 
hello hello hello how low 
hello hello hello...

Припев:
F5
i'm a liar
A#5    G#5
i'm famous 
C#5     F5
here we are now 
A#5    G#5
entertain us
C#5     F5
i'm so stupid
A#5    G#5
and i'm famous
C#5     F5
here we are now 
A#5    G#5
entertain us
C#5     F5
in denail
A#5    G#5
a mullato
C#5     F5
a mosquito
A#5    G#5
a libido
C#5     F5
in denail
A#5    G#5
i'm famous 
C#5     F5
here we are now 
A#5    G#5
entertain us
C#5
yeh 
Наверх