Аккорды No Doubt - Don't Speak

Добавлено: @romashka
Дата добавления: 26 Июля 2020г.
Рейтинг:
0.0
Просмотров: 84
Транспонировать - +
Intro: Cm  

Cm  
You and me  
Gm              Fm  
We used to be together  
Bb          Gm  
Everyday together  
Fm    Bb  
Always  

Cm       Gm  
I really feeld  
    Fm        Bb  
I`m losing my best friend  
Gm                   Cm  
I can`t believe This could be  
  Fm      Bb  
the end  

    Cm       Gm      
It looks as though  
Fm             Bb        
You`re letting go  
    Eb         
And if it`s real  
     Bb               C  
Well I don`t wan`t to know  

CHORUS
Fm  
Don`t Speak  
    Bbm                   Eb  
I know just what you`re saying  
      C           Bbm  
So please stop explaining  
      C                Fm  C# C  
Don`t tell me cause it hurts  
Fm  
Don`t Speak  
    Bbm              Eb  
I know what you`re thinking  
  C               Bbm  
I don`t need your reasons  
      C                Fm  C# C  
Don`t tell me cause it hurts  


Cm  
Our memories  
Gm          Fm  
They can be inviting  
            Bb             Gm  
But some are all together mighty  
Fm      Bb  
frightening  
Cm    Gm   Fm           Bb  
As we die, both you and I  
   Eb              Bb         
With my head in my hands I sit
    C
and cry

CHORUS
Fm  
Don`t Speak  
    C#                   Eb  
I know just what you`re saying  
      C           Bbm  
So please stop explaining  
      C                Fm  C# C  
Don`t tell me cause it hurts  
Fm  
Don`t Speak  
    Bbm              D#  
I know what you`re thinking  
  C               Bbm  
I don`t need your reasons  
      C                Fm  C# C  
Don`t tell me cause it hurts  


C#        G#  
It`s all ending  
          B       F#          
I gotta stop pretending who we
A (A5 C#5, Eb5)   (C#5 C#5 ,  G#5)  G#
are...

Solo: Cm Gm Fm Bb
3X Gm Cm Fm

e|-------------------------------------------|
B|-----6-5-6---------------8-9-8-9-10-9p8----|
G|-5-8-------7-----------8----------------10-|
D|-------------8-5-6--10---------------------|
A|-------------------------------------------|
E|-------------------------------------------|

e|--------8-10-11-10h11p10p8-10----8----8---------------------------------|
B|------8-----------------------11---11---8-11-----8------8-9-11-9h11p9p8-|
G|----8-----------------------------------------10---8-10-----------------|
D|-10---------------------------------------------------------------------|
A|------------------------------------------------------------------------|
E|------------------------------------------------------------------------|

e|-----------------------------------|
B|-----------------------------------|
G|--------------------3-5-3----------|
D|--------3-5---3-5-6-------6--5h6p5-|
A|--3h5h6-----6----------------------|
E|-----------------------------------|


Cm       Bb  
You and me  
   Fm          Bb      Fm  Bb  
I can see us dying... are we?

CHORUS
Наверх