Аккорды No Doubt - Sixteen

Добавлено: @romashka
Дата добавления: 27 Июля 2014г.
Рейтинг:
0.0
Просмотров: 431
Транспонировать - +
Intro/chorus          
---|-----------------------------------------------
4--|---0--2--------0--2--------0--2--------0--2----
4--|---------0--3--------0--3--------0--3--------3-
---|-----------------------------------------------
                                         
--------------------------------------------------
---------------------------0--2--------0--2-------
--5--5--------5--5--------------0--3--------0--3--
--------3--5--------3--5--------------------------
                                             
-------------------------------------0--2--0--------0--2--0----
----------------------------5--5--5-----------3--------------3-
-5--5--5--5--------3--5--5-----------------------5-------------
-------------3--5----------------------------------------------

   verse                                            
|--------------------------------------------------
|--------------------------------------------------
|---0--0--0--0--7--7--7--7--5--5--5--5--5--5--5--5-
|--------------------------------------------------
                               
------------------------------------------------
------------------------------------------------
------------------------------------------------
-0--0--0--0--3--3--3--3--5--5--5--5--5--5--5--5-
                               
      start outro               
|--------------------------------------------------
|---0--2--------0--2--------0--2--------0--2-------
|---------0--3--------0--3--------0--3--------0--3-
|--------------------------------------------------
                                
------------------------------------------------------------
-------------------------5--5--5--0--2--0--------0--2--0----
-5--5--5--5--------------------------------3--0-----------3-
-------------3--5--3--5-------------------------------------
Наверх