Аккорды Ночные Снайперы - Лети моя душа

Добавлено: @vitos
Дата добавления: 17 Мая 2013г.
Рейтинг:
5.0
Просмотров: 1 090
Транспонировать - +
Вступление:

E |----0-------0-------0-------0----- 
H |---1-1-----0-0-----1-1-----0-0---- 
G |--2---2---2---2---2---2---2---2--- 
D |---------------------------------- 
A |-0-------------------------------- 
E |---------4-------3-------2--------


E ----0-------0-------0-------0-----| 
H ---1-1-----0-0-----1-1-----0-0----|
G --2---2---2---2---2---2---2---2---|
D ----------------------------------|
A -0--------------------------------|
E ---------4-------3-------2--------|



   Am*       Asus2*
Лети, моя душа,
   Am*            Asus2*
Лети, мой тяжкий рох.
Dm       E        
Под облаками блокитными,               
Dm         E               Am**           2 раза
  Под облаками-зенитками в небо.       

Лети, моя душа,
И солнце поцелуй
За всех друзей моих сгинувших,   
За тех, кого не покину я.        


Припев: 
F    G   C
 Печаль моя,
Dm/F E   Am
 Будто роса.
F        G        C        Dm
Легкая птаха светла и прозрачна      
Dm6      E      Am                     2 раза 
Белой рубахой отца.                   


Лети, моя любовь,
И крови не жалей.
Брызгами, струями                                              
Да в полнолуния.   
Брызгами, струями                                              
Да в полнолуния.        

И годы - по часам,
И сердце - ястребок.
Я дышу радостью,                 
Нет большей сладости - жить.
       

Припев: 


 Печаль моя,
 Будто роса.
 Легкая птаха светла и прозрачна  
 Белой рубахой отца.               

(***)

Проигрыш как в начале

Лети, моя душа,
Лети, мой тяжкий рох.
Под облаками блокитными,         
Am
в небо.   
Dm6    E    Dm6 E   Asus2
    В небо...     в небо...
Наверх