Аккорды Noel Gallagher’s High Flying Birds - In The Heat Of The Moment

Добавлено: @romashka
Дата добавления: 04 Апреля 2018г.
Рейтинг:
0.0
Просмотров: 44
Транспонировать - +
Tuning: EADG

Bass starts at - 0.07
G|-----------------------------------------------------|
D|-----------------------------------------------------|
A|-4-4-4-4-4-4-4-4-2-2-2-2-2-2-2-2-6-66-6-66-6-66-6-66-|
E|-----------------------------------------------------|

G|---------------------------|
D|-6-6-6-6-6-6-6-6-6-6-6-6-6-|
A|---------------------------|
E|---------------------------|

0.25 (5x)
G|---------------------------|
D|-9-99----------------------|
A|------9-99-11-1111-11-1111-|
E|---------------------------|

0.46
G|---------------------------|
D|---------------------------|
A|-4-44-9-99-11-1111-11-1111-|
E|---------------------------|

0.52
G|---------------------------|
D|-9-99----------------------|
A|------9-99-11-1111-11-1111-|
E|---------------------------|

0.56
G|-----------------------------|
D|-----------------------------|
A|-4-44-4-44-2-22-2-22-6-6-6-6-|
E|-----------------------------|

1.03
G|---------------------------------------------------------------------------------|
D|-------------------------9-9-9-9-9-9-9-9-----------------11-11-11-11-11-11-11-11-|
A|-11-11-11-11-11-11-11-11-----------------9-9-9-9-9-9-9-9-------------------------|
E|---------------------------------------------------------------------------------|

1.12
G|-------------------------------------------------------------------------|
D|-------------------------9-9-9-9-9-9-9-9---------------------------------|
A|-11-11-11-11-11-11-11-11-----------------9-9-9-9-9-9-9-9-6-6-6-6-6-6-6-6-|
E|-------------------------------------------------------------------------|

1.21
G|-------------------------------|
D|-------------------------------|
A|-4-44-4-44-2-22-2-22-----------|
E|---------------------4-4-4-4-4-|

1.30
G|-----------------------|
D|-----------------------|
A|---2-22----------------|
E|-4------2-22-4-44-4-44-|

1.35
G|---------------------|
D|---------------------|
A|-2-22----------------|
E|------2-22-4-44-4-44-|

1.53
G|---------------------|
D|---------------------|
A|-4-44----------------|
E|------2-22-4-44-4-44-|

1.57
G|---------------------|
D|---------------------|
A|-2-22----------------|
E|------2-22-4-44-4-44-|

2.02
G|-----------------------------|
D|-----------------------------|
A|-4-44-4-44-2-22-2-22-6-6-6-6-|
E|-----------------------------|

2.09
G|---------------------------------------------------------------------------------|
D|-------------------------9-9-9-9-9-9-9-9-----------------11-11-11-11-11-11-11-11-|
A|-11-11-11-11-11-11-11-11-----------------9-9-9-9-9-9-9-9-------------------------|
E|---------------------------------------------------------------------------------|

2.18
G|-------------------------------------------------------------------------|
D|-------------------------9-9-9-9-9-9-9-9---------------------------------|
A|-11-11-11-11-11-11-11-11-----------------9-9-9-9-9-9-9-9-6-6-6-6-6-6-6-6-|
E|-------------------------------------------------------------------------|

2.27
G|-------------------------------------------------------------------|
D|-------------------------------------------------------------------|
A|-4-44-4-44-2-22-2-22-----------4-44-4-44-2-22-2-22-6-6-6-6-6-6-6-6-|
E|---------------------4-44-4-44-------------------------------------|

2.43
G|---------------------------------------------------------------------------------|
D|-------------------------9-9-9-9-9-9-9-9-----------------11-11-11-11-11-11-11-11-|
A|-11-11-11-11-11-11-11-11-----------------9-9-9-9-9-9-9-9-------------------------|
E|---------------------------------------------------------------------------------|

2.52
G|-------------------------------------------------------------------------|
D|-------------------------9-9-9-9-9-9-9-9---------------------------------|
A|-11-11-11-11-11-11-11-11-----------------9-9-9-9-9-9-9-9-4-4-4-4-4-4-4-4-|
E|-------------------------------------------------------------------------|

3.01
G|---------------------------------------------------------------------------------|
D|-------------------------9-9-9-9-9-9-9-9-----------------11-11-11-11-11-11-11-11-|
A|-11-11-11-11-11-11-11-11-----------------9-9-9-9-9-9-9-9-------------------------|
E|---------------------------------------------------------------------------------|

3.10
G|-------------------------------------------------------------------------|
D|-------------------------9-9-9-9-9-9-9-9---------------------------------|
A|-11-11-11-11-11-11-11-11-----------------9-9-9-9-9-9-9-9-6-6-6-6-6-6-6-6-|
E|-------------------------------------------------------------------------|

3.19
G|-------------------------------|
D|-------------------------------|
A|-4-44-4-44-2-22----------------|
E|----------------2-22-4-4-4-4-4-|
comments powered by Disqus
Наверх