Аккорды Noel Gallagher’s High Flying Birds - (Stranded on) The Wrong Beach

Добавлено: @romashka
Дата добавления: 04 Апреля 2018г.
Рейтинг:
0.0
Просмотров: 8
Транспонировать - +
CAPO:3


Em = 022000
Em? = 222000
G6 = 320000
Asus2 = 002200
C = 332010
Dsus2 = 000230
B11 = X21200
Em7 = 020000
B   = X24442
G   = 320033
B7  = X21202


Electric guitar

Verse


x---x---x---x---x---x---x---x---x-|
x---x---x---x---x---x---x---x---x-|
x---x---x---x---x---x---x---x---x-|
5---5---5---5---5---5---5---5---4-|   (2x)
x---x---x---3---6---8---x---6---5-|
3---5---6---x---x---x---3---x---x-|

x---x---x---x---x---x---x---x-|
x---x---x---x---x---x---x---x-|
x---x---x---x---x---x---x---x-|
5---5---5---5---5---5---3---7-|
x---x---x---3---6---8---x---x-|
3---5---6---x---x---x---6---5-|




Em         Em?          G6          Asus2
Falling, I see you on the way down
       C            Dsus2                 Em         C   B11
I'll meet you on the rebound somewhere in between
Em         Em?          G6          Asus2
Calling out across the airwaves
        C            Dsus2                   G6   B11
Faces that you can't say are calling out for me



Chorus
x---x---x---x-|
x---x---x---x-|
x---x---x---x-|
8---7---5---x-|   (5x)
6---5---x---8-|
x---x---3---6-|

x---x---x------x---x-|
x---x---x------x---x-|
x---x---x------x---x-|
5---7---5------5---4-|
3---5---x------6---5-|
x---x---3------x---x-|



C   B11   Em   Em7   C   B11      Em   Em7
And oh me, oh my, say so long baby, bye-bye
C   B11   Em   Em7            C   B11
Pour me one for the road, it's a long journey baby
Em   Em7                     C   B11                    Em
Where it's gonna take me just depends on the weight of my load
Em7     C          B11       Em     Em7   Em   c  B11
Oh no, depends on the weight of my load



Riff:---------------|
     ---------------|
     14^-14--12--11-|
     ---------------|
     ---------------|
     ---------------|


Em?                          G6        Asus2
So long, I'll see you in the next one
                  C               Dsus2                  G6    B11
Cause everybody's been and gone, there's no one here but me



C   B11   Em   Em7   C   B11    Em   Em7
And oh me, oh my, say so long baby, bye-bye
C   B11   Em   Em7            C   B11
Pour me one for the road, it's a long journey baby
Em   Em7           C   B11                                Em
Where it's gonna take me just depends on the weight of my load
Em7             C          B11       Em
Oh no, depends on the weight of my load



Solo (same strumming as the into):  Em  B  G  Asus2  C  Dsus2  Em  C  B11


Solo (Rhythm Guitar)
x---x---x---x---x---x---x---x---x-|
x---x---x---x---x---x---x---x---x-|
x---x---x---x---x---x---x---x---x-|
x---7---x---x---8---10--5---5---4-|
5---5---8---10--6---8---x---6---5-|
3---x---6---8---x---x---3---x---x-|

x---x---x---x---x---x---x---x-|
x---x---x---x---x---x---x---x-|
x---x---x---x---x---x---x---x-|
x---7---x---x---8---10--x---7-|
5---5---8---10--6---8---8---5-|
3---x---6---8---x---x---6---x-|

Solo
----------------------------------------------------|
----------------------------------------------------|
12-14-11------10--12-----------10--12--14^-14-12-11-|
----------12----------14---13-----------------------|
----------------------------------------------------|
----------------------------------------------------|

----------------------------------------------------|
----------------------------------------------------|
12-14-11----10--12-----------10------14^-14-12-11---|
---------12---------14---13------12-----------------|
----------------------------------------------------|
----------------------------------------------------|



C   B11   Em   Em7   C   B11    Em   Em7
And oh me, oh my, say so long baby, bye-bye
C         B11        Em        Em7        C           B11
Pour me one for the road, it's a long journey baby
Em              Em7               C               B11       Em
Where it's gonna take me just depends on the weight of my load
Em7     C                B11                   Em
Oh no, depends on the weight of my load
Em7     C                B11                   Em
Oh no, depends on the weight of my load
Em7     C                B11                   Em    Em7
Oh no, depends on the weight of my load



Final Verse
x---x---x---x---x---x---3-|
x---x---x---x---x---x---3-|
x---x---x---x---x---x---5-|
5---5---5---5---5---5---5-|
x---x---x---3---6---8---3-|
x---5---6---x---x---x---3-|


Em         Em?                G6            Asus2
Dry land sinking in the quicksand
                     C            Dsus2                    Asus2
Stranded on the wrong beach, come and rescue me
comments powered by Disqus
Наверх