Аккорды Noize MC - Всё как у людей

Добавлено: @romashka
Дата добавления: 14 Февраля 2020г.
Рейтинг:
0.0
Просмотров: 68
Транспонировать - +
Вступление: Bmsus4 Bm/F# | Bmsus4 Bm/F#
            F#sus4 F# | F#sus4 F#

Интро: [Владимир Путин]
N/С
Нам всем кажется, что если — не скрою, 
И мне иногда так кажется — что если навести вёрдый порядок жёсткой 
Рукой, то всем нам станет жить лучше, комфортнее и безопаснее
На самом деле, эта «комфортность» очень быстро пройдёт, 
Потому что эта жёсткая рука начнёт нас очень быстро душить

Куплет 1: [Noize MC]
Em     
Голову в коробке пластмассовой
F#m
Вместе с телефоном, ключами и паспортом
Bm
Рентгеном в сканере просветят ласково
G
В целях безопасности государственной
Em
И обратно вряд ли пришьют уже:
F#m
Руки ищут затылки над обрубками шей
Bm
Туловища жмутся грудными клетками к стенам
G
Не видно из контейнеров, что там с телом
Em
Лента с монотонным гулом коробку тащит
F#m
И для тулова тоже подыщут ящик:
Bm
Станет стан обезглавленный, в нём лежащий
G
Почти покойником, почти настоящим
Em                 F#m
Кто-то, может быть, даже помянет на 40 дней

Припев: [Егор Летов]
Bm         G  Em F#m
Всё как у людей
Bm         G  Em F#
Всё как у людей

Куплет 2: [Noize MC]
Em
А девочка из конной полиции
F#
С белым айфоном на белом жеребце
Bm
Ждёт в Инстаграме лайка от принца
G
И ждёт от Чёрной Пятницы низких цен
Em
Мерно цокают копытца по улице
F#
Винтят демонстрантов мальчики-коллеги
Bm
Обсуждают рецепты подружки-умницы
G
В недозаблокированной «телеге»
Em
Она завтра купит в «Меге» наборчик «LEGO»
F#
Для племянника на его рождения день
Bm
В наборе — автозак и три человека:
G                    Em
Двое ментов на одного — всё как у людей
F#
Всё как у людей

Припев: [Егор Летов]
Bm         G  Em F#m
Всё как у людей
Bm         G  Em F#m
Всё как у людей

Куплет 3: [Noize MC]                                
e-------------------------------------------------- 
B-2-------------------------------4----------------
G--------------------------------------------------
D-0-------------------------------3----------------
A-0-------------------------------2----------------
E-0-------------------------------2----------------
Em                              F#
СМИ голосят то, что повсюду агенты МИ-6, ЦРУ и Моссада

e--------------------------------------------------
B-2----------------2-------------------------------
G--------------------------------------------------
D-4----------------0------------------------------
A-3----------------0-------------------------------
E-2----------------2-------------------------------
 Bm               G
Пугают исчадием ада звёздно-полосато-носато-пейсатым

e-------------------------------------------------- 
B-2-----------------4------------------------------
G--------------------------------------------------
D-0-----------------3------------------------------
A-0-----------------2------------------------------
E-0-----------------2------------------------------
Em                 F#
Лёд под ногами майора ломается легче, чем корка фалафеля:

e--------------------------------------------------
B-2-----------------------------2------------------
G--------------------------------------------------
D-4-----------------------------0------------------
A-3-----------------------------0------------------
E-2-----------------------------2------------------
 Bm                            G
Майор не боится, майор не утонет — майор, если что, в батискафе

e-------------------------------------------------- 
B-2-------------------------------4----------------
G--------------------------------------------------
D-0-------------------------------3----------------
A-0-------------------------------2----------------
E-0-------------------------------2----------------
 Em                              F#
Ты слышишь, как скрепы скрипят и жужжат старомодным дабстепом?

e--------------------------------------------------
B-2--------------------------------2---------------
G--------------------------------------------------
D-4--------------------------------0---------------
A-3--------------------------------0---------------
E-2--------------------------------2---------------
 Bm                               G
Это снова, словно Челубей с Пересветом, 
Насмерть бьются «совдеп» с Госдепом

e-------------------------------------------------- 
B-2-----------------4------------------------------
G--------------------------------------------------
D-0-----------------3------------------------------
A-0-----------------2------------------------------
E-0-----------------2------------------------------
 Em                F#
А чтобы чужие боялись, своих посильнее бей

Припев: [Егор Летов]
Bm         G  Em F#m
Всё как у людей
Bm         G  Em F#m
Всё как у людей

Куплет 4: [Noize MC]
Bmsus4 
Слышь, не нагнетай, перестань —
Bmsus4
Если кипеш реальный начнётся, что будет, представь!
Bm/F#
Если тут тебе неймётся — так пиздуй в Пиндостан:
Bm/F#
Хули ты всё надрываешься? В натуре, достал!
Bmsus4
От дерьма на вентиляторе дышать не легче —
Bm/F#
Лишь охота респираторы прижать покрепче
Bmsus4
Без тебя хватает смрада — орать легко
Bm/F#
Все знают, как не надо, как быть — никто
Bm/F#       F#sus4
Политшапито. Медиаклоунада:
F#sus4                 F#
У каждой хламидомонады — ума палата
F#
И на всё — свои взгляды
F#sus4
А ты что-то пиздишь многовато нам тут
F#
Для заложника режима, сука, с кляпом во рту
Bmsus4
Протест невзатяг, бунт в соцсетях
Bm/F#
Пляски под чужую дудку на чужих костях
Bmsus4
Лучше бы шишек ГАЗПРОМовских развлекал
Bm/F#
По жирным заказникам в шикарных особняках

Em
Мир однокомнатных квартир с совмещённым санузлом:
F#m
Микрофон за 100 рублей, самопальное музло
Bm
Ты же выбрался оттуда? Значит, повезло!
G
Так фильтруй базар и множь на счету число:
Em
Уютная коробка мещанского райка
F#m
Лубочные картинки про счастье дурака
Bm
Типичные сюжеты — культуры суррогат:
G
Душонка — по дешёвке, а шкура — дорога
Em
Но ты давай вон спроси у своих детей
F#M
Где их папа нужней: в сводках новостей
Bm
Чтоб ноги об него вытирать по телику?
G
Или в коридоре, чтоб сиденье поднять у велика?
Em
Скучно, что ли, живётся без пиздюлей?
F#m
Пока кормят — ешь, пока поят — пей

Припев: [Егор Летов]
Bm         G  Em F#m
Всё как у людей
Bm         G  Em F#
Всё как у людей
Bm         G  Em F#m
Всё как у людей
Bm         G  Em F#
Всё как у людей
Наверх