Аккорды Oomph! - Augen Auf

Добавлено: @romashka
Дата добавления: 24 Декабря 2013г.
Рейтинг:
0.0
Просмотров: 1 231
Транспонировать - +
Verse:
E|-------------------------------------------------------------------------------|
B|-------------------------------------------------------------------------------|
G|-------------------------------------------------------------------------------|
D|-------------------------------------------------------------------------------|
A|-4-4-4-4-4-4-4-4-4-4-4-4-4-6-6-7-7---------------------------------------------|x7
E|-----------------------------------5-5-5-5-5-5-5-5-5-5-5-5-5-5-5-5-5-5-4-4-2-2-|

Chorus: 
E|-------------------------------|
B|-------------------------------|
G|-6-6-------9-9-----------------|
D|-6-6--7-7--9-9--9-9--7-7--9-7--|
A|-4-4--7-7--7-7--9-9--7-7--9-7--|x4
E|------5-5-------7-7--5-5--7-5--|

Verse 2:
E|-------------------------------------------------------------------------------|
B|-------------------------------------------------------------------------------|
G|-------------------------------------------------------------------------------|
D|-------------------------------------------------------------------------------|
A|-4-4-4-4-4-4-4-4-4-4-4-4-4-6-6-7-7---------------------------------------------|x3
E|-----------------------------------5-5-5-5-5-5-5-5-5-5-5-5-5-5-5-5-5-5-4-4-2-2-|

Chorus x2: 
E|-------------------------------|
B|-------------------------------|
G|-6-6-------9-9-----------------|
D|-6-6--7-7--9-9--9-9--7-7--9-7--|
A|-4-4--7-7--7-7--9-9--7-7--9-7--|x8
E|------5-5-------7-7--5-5--7-5--|

End:
E|----------------11--12-|
B|-------5---------------|
G|-----6-----------------|
D|---6-------------------|
A|-4---------------------|
E|-----------------------|
Наверх