Аккорды Oomph! - Burn your eyes

Добавлено: @romashka
Дата добавления: 24 Декабря 2013г.
Рейтинг:
0.0
Просмотров: 601
Транспонировать - +
verse
b|---------------------|
g|---------------------|
d|-2-h4--2-h4--2-h4----|
a|-2-h4--2-h4--2-h4----|
e|-0-h2--0-h2--0-h2----|
B|---------------------|

b|----------------------|
g|----------------------|
d|-2-h4--2-h4--2-h4---4-|
a|-2-h4--2-h4--2-h4-4---|
e|-0-h2--0-h2--0-h2-----|
B|----------------------|

chorus
b|------------------------|
g|------------------------|
d|------------------------|
a|----2222222225555555----|
e|----2222222225555555----|
B|----0000000003333333----|     play 3x 

end on this
b|------------------------|
g|------------------------|
d|------------------------|
a|----9999999997777777----|
e|----9999999997777777----|
B|----7777777775555555----|
Наверх