Аккорды Orange House - Зачем

Добавлено: @romashka
Дата добавления: 13 Февраля 2019г.
Рейтинг:
0.0
Просмотров: 11
Транспонировать - +
(Перебор)
G     Em
День обещает быть сложным и ветреным
G    Em
Девочка шлет свои мысли по воздуху
C    D
Любовь не измеряется метрами
C    D
И на наши две жизни одно невозможное

G    Em
Твои глаза, остывшие медленно
G    Em
Мое сердце, горящее от пустоты всегда
C     D
Эти взгляды больше не встретятся первыми
C         D
И на каждое нет приходится редко да

(Бой)

Припев:
   G         Bm          C
Скажи мне - зачем люди убивают друг друга?
    D
Убивают так часто и
   G                Bm
Девочка сидит на обрывке мечты
            C
Она не будет счастлива
             D
Никогда не будет счастлива.

G     Em
Я так давно потерянный в этом сне
G     Em
Я жду тебя в переходах и поездах
C           D
Так просто смотреть наверх, когда ты на дне
C       
Если хочешь уходи навсегда, 
       D
или просто останься сейчас

G         Em
Твои планы разрушены - нам больше негде жить
G    
Мой дом под вогнутым небом, 
      Em
твой в одинаковых комнатах
C            D
Тебе, чтобы выжить, так много сделать, 
D
сказать, забыть
C           D
Мне, чтобы жить, достаточно нового дня

Припев:
   G         Bm          C
Скажи мне - зачем люди убивают друг друга?
    D
Убивают так часто и
   G                Bm
Девочка сидит на обрывке мечты
            C
Она не будет счастлива
             D
Никогда не будет счастлива.

G     Em
Я ненавижу говорить пока - я люблю
G     Em
Смотреть в глаза той, которую однажды встречу
C               D
Тебе не нужен ни мир, ни война - плевать
D
Без меня, или со мной,
C                    D
Когда говорить больше нечего

(Перебор)
G     Em
День обещает быть сложным для нас двоих
G     Em
В книгах советы по легкости бытия
C     D
Слова сложились в один одинокий стих
C     D
В нем может быть даже имеются ты и я

G     Em
Если ты слышишь и что-то еще болит
G     Em
Если слова могут выжечь в груди пятно
C     D
Забудь обо всем и просто дождись
C     D
Мне почти наплевать, но еще не все равно

(Бой)

Припев:
   G         Bm          C
Скажи мне - зачем люди убивают друг друга?
    D
Убивают так часто и
   G                Bm
Девочка сидит на обрывке мечты
            C
Она не будет счастлива
             D
Никогда не будет счастлива.

Перебор:
---------------------------
---------------------------
------2--------------------
----0----------2--4---2----
--2---------2------------2-
3---------0----------------

----------------------------
----------------------------
------2---------------------
----0----------2--4---2-----
--2---------2------------2--
3---------0-----------------

----------------------------------
--------0-------0-------3-------0-
------0-------0-------0-------3---
----2-------2-------4-------4-----
--3-------3-------5-------5-------
----------------------------------

-------------------------------
--------0-------0-------3------
------0-------0-------0--------
----2-------2-------4----------
--3-------3-------5------------
-------------------------------

Бой:  
Куплет: ↓ ↓↓↑ ↑↓  ↓↑↓↑
Припев: ↓ ↓  ↑ ↑↓  ↓↑↓↑
comments powered by Disqus
Наверх