Аккорды Оргазм Нострадамуса - Угон трамвая

Добавлено: @romashka
Дата добавления: 30 Августа 2022г.
Рейтинг:
0.0
Просмотров: 26
Транспонировать - +
[Вступление]:
3)--6-5--5--4--------------6-5--5--4----- }3 
4)-4----4-4--7-4--2-4-2---4----4-4--7-4-- 
 
расположение аккордов 
4)-4--0---5--7----3------2---5---6- 
5)-2--2--3---7----3---3--2--3---4-- 
6)----------5----1---1------------- 
 
4 0 4 2 4 5 4 2 4 0 4 5 
2 2 2 0 2 3 2 0 2 2 2 3 
Когда я угнал трамвай, 
Мои думки были дудки 
Я твердил как попугай: 
"Все вы свиньи и ублюдки!" 
2 5 2 5 6 2 5 2 5 6 
0 3 0 3 4 0 3 0 3 4 
Сквозь разбитое окно 
Отряжался я в луне 
Мое старое пальто 
В блевотине и говне. 
 
 
[Припев]: 
7 3   2 0 5 0 
7 3 3 2 2 3 2 
5 1 1 
Ускакали деревянные лошадки 
Но зато теперь, не человечьи ржа, 
С помощью железного трамвайчика, 
Раздобуду деревянный я пиджак 
 
3)--5-6--5--4-------------5-6--5--4----- }3 
4)-4----4-4--7-4--2-4-2--4----4-4--7-4-- 
 
4 0 4 2 4 5 4 2 4 0 4 5 
2 2 2 0 2 3 2 0 2 2 2 3 
По ночной, по мостовой, 
Шлялась бабка с бородой. 
Пятернею, из окна, 
Я схватил ее тогда. 
2 5 2 5 6 2 5 2 5 6 
0 3 0 3 4 0 3 0 3 4 
Так я ехал и звонил, 
И свиней всех я давил. 
Пятерней второй держал 
Микрофон и дико ржал 
 
Припев 
 
 
3)--5-6--5--4-------------5-6--5--4----- }2 
4)-4----4-4--7-4--2-4-2--4----4-4--7-4-- 
 
 
4 0 4 2 4 5 4 2 4 0 4 5 
2 2 2 0 2 3 2 0 2 2 2 3 
Зачесалась голова 
Бабку отпустил тогда. 
Отхлебнул из пузыря, 
Занималася заря. 
2 5 2 5 6 2 5 2 5 6 
0 3 0 3 4 0 3 0 3 4 
Я трамвай остановил, 
В кресло сел, как пассажир 
Деловито закурил, 
Причиндалы разложил 
 
Припев.
 
3)--5-6--5--4-------------5-6--5--4----- }2 
4)-4----4-4--7-4--2-4-2--4----4-4--7-4-- 
 
4 0 4 2 4 5 4 2 4 0 4 5 
2 2 2 0 2 3 2 0 2 2 2 3 
Куда фига - туда дым 
И со всех концов менты 
Облепили мой трамвай 
И кричат мне: "Вылезай!" 
2 5 2 5 6 2 5 2 5 6 
0 3 0 3 4 0 3 0 3 4 
Одна пуля прямо в глаз, 
А вторая прямо в таз, 
Третья пуля под ребро 
И не стало ничего... 
Наверх