Аккорды Origami - Ради тебя (feat. Комната)

Добавлено: @romashka
Дата добавления: 31 Января 2022г.
Рейтинг:
0.0
Просмотров: 32
Транспонировать - +
Intro: x4
|---0---------------------------| 
|-----------2-------0--------2--| 
|-----------2-----------------2-| 
|0-----0------------------------| 
|----------------0------0-------| 
|-------------------------------| 

F#m E A 
Ты не представляешь как сложно 
D 
Иногда выбирать 
F#m E A 
Жить или просто остаться на месте 
D 
Ничего не менять 
F#m E A D 
Сжигая остатки вчерашних побед 
F#m E Am E 
Сам себе лгал, веря в то чего нет, нет 

F#m E A 
Только ради тебя, только ради тебя 
D 
Я поверю в реальность 
Am E 
Только ради твоих удивительных глаз 

D A "уже перебор начался" 
Я готов умереть и воскреснуть 

Проигрыш: x4
|---0---------------------------| 
|-----------2-------0--------2--| 
|-----------2-----------------2-| 
|0-----0------------------------| 
|----------------0------0-------| 
|-------------------------------| 

F#m E A 
Ты не представляешь как страшно 
D 
Иногда засыпать 
F#m E A 
Знай, что еще миллионы людей нас 
D 
Не могут понять 

F#m E A D 
Сжигая остатки вчерашних газет 

F#m E 
Мое имя есть там 
Am E 
Но тебя рядом нет, нет 

F#m E A 
Только ради тебя, только ради тебя 
D 
Я поверю в реальность 
Am E 
Только ради твоих удивительных глаз 
D A F#m 
Я готов умереть и воскреснуть 

Проигрыш: E A E 

D A D 
Воскреснуть опять, Воскреснуть опять, 
E D 
Воскреснуть опять, Воскреснуть опять, 
E D 
Воскреснуть опять, Воскреснуть опять, 
E D 
Воскреснуть опять, Воскреснуть опять, 
E D E 
Воскреснуть опять, Воскреснуть опять, Еееее

F#m E 
Только ради тебя, 
F#m E 
Я поверю в реальность 
F#m D A D 
Только ради твоих удивительных глаз 

F#m E A 
Только ради тебя, только ради тебя 
D 
Я поверю в реальность 
Am E 
Только ради твоих удивительных глаз 
D A F#m E F#m 
Я готов умереть и воскреснуть…… опять…
Наверх