Аккорды Orishas - Desaparecidos

Добавлено: @romashka
Дата добавления: 05 Апреля 2018г.
Рейтинг:
0.0
Просмотров: 44
Транспонировать - +
Here are the chords: Em, D, Am, B, C
And here the tabs:
   Em       D        Am       B 
e:---7----|---5----|---5----|---7----|
b:---8----|---7----|---5----|---7----|
g:---9----|---7----|---5----|---8----|
d:---9----|---7----|---7----|---9----|
A:-7------|-5------|---7----|---9----|
E:--------|--------|-5------|-7------|

   Em       D        Am        C  B 
e:---7----|---5----|---5----|--8--7--|
b:---8----|---7----|---5----|--8--7--|
g:---9----|---7----|---5----|--9--8--|
d:---9----|---7----|---7----|-10--9--|
A:-7------|-5------|---7----|-10--9--|
E:--------|--------|-5------|--8--7--|
comments powered by Disqus
Наверх