Аккорды Отпетые Мошенники - Люби меня, люби

Добавлено: @vitos
Дата добавления: 17 Декабря 2017г.
Рейтинг:
0.0
Просмотров: 661
Транспонировать - +
1)-----0---------------------------0----------------------
2)------3-1-3---------1-1/5-5--------1---3-----3-1-0-0----
3)--2---------2-----2------------------0---------------2--

1)-----0---------------------------0----------------------
2)------3-1-3---------1-1/5-5--------1---3-----3-1-0-0----
3)--2---------2-----2------------------0---------------2--

1)----0----------------0---------------0---------------0------------
2)-------3-1-3-----------3-1-3-3---------3-1-3-----------3-1-3-3-0--
3)--2----------2-----0---------------2---------2-----0--------------

1 куплет:
Am
Скоро весна, скоро весна, 
Bm             Em
Скоро эти ночи беспокойного сна. 
Am
Снова весна, снова любовь, 
Bm             Em
Снова в наших жилах заиграет кровь. 
Am
Снова рассвет, снова рассвет, 
Bm             Em
И назад уже дороги нет. 
Am
Скоро печаль, скоро печаль, 
Bm             Em
Всё уйдет, и нам немного жаль. 
C
Знаю ответ, знаю ответ, 
C
На вопрос - ты есть или нет. 
G
Знаю обман, знаю обман, 
G
Знаю нашей любви океан. 
F
Ты не одна, ты не одна 
F
Будешь этой ночью без сна, 
G
Скоро любовь, скоро весна. 
Ага. 

Припев:
              F           C
Люби меня, люби, жарким огнём
          G              D
Ночью и днём сердце сжигая, 
              F         C
Люби меня, люби, не улетай, 
           G      D
Не исчезай, я умоляю. 
              F C
Люби меня, люби. 
             G D
люби меня, люби. 
              F C
Люби меня, люби.
             G D
люби меня, люби. 

2 куплет:
Am
Скоро тепло, скоро тепло, 
Bm             Em
Скоро много нам воды натекло.
Am 
Скоро тепло, скоро экстаз, 
Bm             Em
И эта музыка доходит до нас. 
Am
Делаю шаг, делаю два, 
Bm             Em
Закружилась от любви голова. 
Am
Знаю теперь, знаю теперь 
Bm             Em
Как открыть эту тайную дверь. 
C
Время идёт, время идёт, 
C
Нам его уже никто не вернёт. 
G
Время летит, время летит, 
G
Двигаясь с нами, танцуя в пути. 
F
Снова вопрос, снова ответ, 
F
Снова загорит невидимый свет, 
G
С нами любовь, с нами игра. Ага. 

Припев:
              F           C
Люби меня, люби, жарким огнём
          G              D
Ночью и днём сердце сжигая, 
              F         C
Люби меня, люби, не улетай, 
           G      D
Не исчезай, я умоляю. 
              F C
Люби меня, люби. 
             G D
люби меня, люби. 
              F C
Люби меня, люби.
             G D
люби меня, люби. 
D
Люби меня, люби.
Наверх