Аккорды «Our Lady Peace»

Our Lady Peace
Группа Our Lady Peace, которая уже пережила смену гитариста (на место Майка Тернера (Mike Turner) пришел Стив Мазур (Steve Mazur)) и бесконечные дни гастрольных турне до сих пор полна сил, интересных идей и энтузиазма, несмотря на 11 лет, прошедшие с момента образования группы. Команда, начинавшая также, как и многие другие неопытные юнцы, не обращала внимание на всякую ерунду и смогла завоевать любовь фанатов во всем мире, благодаря неистощимой, бушующей энергией, которой проникнуты все ее песни.… Читать полностью... Группа Our Lady Peace, которая уже пережила смену гитариста (на место Майка Тернера (Mike Turner) пришел Стив Мазур (Steve Mazur)) и бесконечные дни гастрольных турне до сих пор полна сил, интересных идей и энтузиазма, несмотря на 11 лет, прошедшие с момента образования группы. Команда, начинавшая также, как и многие другие неопытные юнцы, не обращала внимание на всякую ерунду и смогла завоевать любовь фанатов во всем мире, благодаря неистощимой, бушующей энергией, которой проникнуты все ее песни. По сути, Our Lady Peace выделяется тем, что является одной из немногих Канадских групп, альбомы которых лучше продаются на территории США, нежели чем в самой Канаде. И это несмотря на то, что американский рынок всегда отличался своей сумасшедшей конкуренцией! За последние одиннадцать лет ребята из O.L.P занимали первые места в хит-парадах журнала Billboard с тремя из пяти своих альбомов. Их новый альбом "Gravity" ("Притяжение") получил седьмое место в чарте лучших 200 альбомов в журнале Billboard "Top 200". Два альбома группы получили статус золотых на территории США. Бесконечные мировые туры и постоянные выступления на сцене помогли ребятам завоевать любовь преданных фанатов. Их недавнее выступление в Сан-Франциско практически ничем не отличалось от обычного. Как всегда, среди публики было множество поклонников, приехавших из других штатов на это шоу специально за тем лишь, чтобы в очередной раз лицезреть своих любимцев. Фэны знали текст даже не выпущенных еще песен! Конечно же, Райн имеет полное право гордиться своим фэн-клубом: "Мы всегда пытаемся сделать наши концерты живым общением с публикой. Мы так решили. И мы очень рады, что билеты на наши концерты распродаются на ура. Люди приходят к нам, поют вместе с нами, поют все песни, а не только те, что крутятся на радио. " Райн Мэйда узнал о VOX Valvetronix благодаря продюсеру последнего альбома O.L.P. Бобу Року (Bob Rock). Рэйн так рассказал нам об этом: "Боб показал нам VOX, когда мы работали над очередной записью в студии. Мне он настолько понравился, что я взял его с собой в турне, состоявшееся прошлым летом, и играл на нем. До того момента, как я познакомился с усилителями Valvetronix, я, бывало, частенько играл чистым звуком даже в тех местах по ходу композиции, где надо бы играть с перегрузкой. Меня все это порядком достало. Теперь же я могу выбрать любой звук, что действительно прикольно! Например, песни 'Superman's Dead' (Смерть супермэна) и 'Clumsy' (Грубый) существуют в акустическом варианте, но припевы звучат как-то грязно. Но теперь мы легко можем играть их на любом концерте." Гитарная цепочка Райна состоит из усилителя типа "голова" Valvetronix AD120VTH и кабинета AD412. Он продолжил свой рассказ: "Я в основном пишу вещи с гитарой, и играю главным образом на акустической гитаре, но сейчас, пока мы работаем в студии, я на время отложил свою акустику в сторону. Valvetronix - прекрасный и удобный инструмент для работы, потому что все необходимое для работы под рукой. Внутри каждого усилителя множество великолепно звучащих пресетов и алгоритмов имитации других аппаратов, переключаются они почти мгновенно. С этим усилителем я могу выступать, записывать демо или делать полноценную студийную запись. Это универсальный усилитель!" Комментируя работу O.L.P с известным в мире рок-музыки продюсером Бобом Роком (Bob Rock), Райн рассказал нам: "Я думаю, каждый заметил, как изменилась Metallica, когда они выпускали свой Черный Альбом. Когда видишь, как Боб настойчиво навязывал свои концепции и представления Кирку (Kirk Hammett) и всем остальным парням, даже Джеймсу (James Hetfield), требуя полного подчинения, проникаешься самым глубоким уважением к человеку, который так сражается за свои идеи. Вот такой и есть Боб на самом деле: прямой, простой и откровенный. Мы хотели, чтобы весь мир увидел в нас таких же музыкантов. Боб и теперь весьма оходчив до музыки, более того - он настоящий знаток и ценитель музыки, и его нахождение рядом с вами в студии действует просто магически! Он действительно может заставить вас взяться за дело со всей серьезностью." С тех пор, как закончилось летнее концертное турне, Райн и остальные ребята из Our Lady Peace лихорадочно колесили между Гавайями, где они записывались в студии Боба и Лос-Анджелесом, где проходила работа по подготовке к выпуску нового диска. Скрыть...
Популярные аккорды Our Lady Peace:
алфавиту | просмотрам | случайно
  • The song is in standard tuning and revolves around a C#m Aadd9 Eadd9 B 
    progression
    
    C#m (x46654)   C#5 (x466xx)
    Aadd9 (x02420) A5 (x022xx) A5(add9?) (x024xx)
    Eadd9 (022102) E5 (022xxx) E5(add9?) (024xxx)
    B (x24442)…
  • Tune down 1/2 step Eb Ab Db Gb Bb Eb
    
    
    Intro: C#m   A   C#m   A
    
    C#m                       A                                  C#m
    I walked around my good intentions and found that there were none…
  • Tuning: Drop D and everything dropped a half step (Gb Db Ab Db)
    
    *For the intro and chorus I just have the basic notes here. But if you 
    listen to the song, Duncan plays around a bit. You can get away with just 
    playing…
  • Intro & Verse:
    Distorted, listen to song for timing
    
    ------------------------------------------|
    ------------------------------------------|
    ------------------------4-------4---------|
    -----9---------9------4---4---4---4-------|
    ---7---7-----9---9------------------------|
    -5--------7--------2--------0-------------|
    
    Pre…
  • This song starts off with a drum beat let it go through twice then play
                   Intro/verse1  repeat 2x
    E]-----------------------------------------------------------------
    B]-----------------------------------------------------------------
    G]-----------------------------------------------------------------
    D]-0-00-00-00-02-7-77-77-77-7/9-5-55-55-55-55-9-999-7-77-7777------
    A]-----------------------------------------------------------------
    E]-----------------------------------------------------------------…
  • 1/2 down tuning
    
     D A/D G  E
    -0--0--3--0---------------
    -3--3--3--0---------------
    -2--2--4--1---------------
    -0--2--5--2---------------
    ----0--5--2---------------
    -------3--0---------------
    
    Intro/ Verse:
    Intro Riff:
    D…
  • Tuning (Eb Ab Db Gb Bb Eb)
    
    Intro (You You You...)
    
      Q  E E E E E E Q  5x E E E E E E Q
    |--------3-3--------||-5-5-3-3----------|
    |----3-3-----3-3---o||---------3-3------|
    |-0--------------0--||-------------0----|
    |-------------------||------------------|
    |------------------o||------------------|
    |-------------------||------------------|
    
    
    Verse…
  • Tuning: Standard Half Step Down (Eb Ab Db Gb Bb eb)
    
    Key:
    
    ~~~ = Vibrato
    (no.) = Natural harmonic
    b(no.) = Bend note to match pitch of (no.)
    r = release bent note to original pitch
    h = Hammer on
    p = Pull off
    x = Fret Hand…
  • Tuned down half a step
    
    Intro/Verse: 
       Guitar 1
    e#:------------------------------
    B#:------------------------------
    G#:------------------------------
    D#:------------------------------
    A#:----12--12--9--7--5--5--5--7--
    E#:--10---9---7--5--3--2--3--5---…
  • Tuning low to high (Eb Ab Db Gb Bb Eb)
    
    Part 1
    |-------------------------------------------------------------|
    |-------------------------------------------------------------|
    |-7-----------------------------------------------------------|
    |-7----------7p0---x-x-x----x-----------7p0---x-x-x-----------|
    |-5----------------x-x-x----x-----------------x-x-x-----------|
    |-5--------------5-x-x-x-5--x-5-5-5~~~------5-x-x-x-5-5~5~5~5~|
    
    Part…
  • Verse (strumming)
    ---0---0---0---0
    ---0---3---0---0
    ---2---2---1---2
    ---4---0---2---2
    ---4-------2---0
    --(2)------0----
    play note with thumb
    
    Chorus
    ----------------
    ----------------
    ------7---9-----
    --4---7---9---7-
    --4---5---7---7-
    --2-----------5-
    
    ending…
  • Tune down 1/2 step Eb Ab Db Gb Bb Eb
    
    
    Fig.1
    Bass intro
    |---------------------------------------------------|
    |---------------------------------------------------|
    |---------------------------------------------------|
    |-5-5-5-3-3--5-5-5-5--3-3--5-5-5-3-3--5-5-5-5--6-6--|
    
    
    (the…
  • Intro/Verse
    E---0---3---0-------3-----------0---3--0h1---1-3---1--|
    B-1---1-------3-1-3---1-3-----1---1--------3-----1----|
    G-----------------------------------------------------|
    D-----------------------------------------------------|
    A-----------------------------------------------------|
    E-----------------------------------------------------|
    
    
    --(play…
  • Tuning: Down Half Step
    
    Intro and Verses (Follow the song for Rpt #)
    Guitar 
    e|-----------------2--2--0------
    B|-----------------2--2--0------
    G|-----------------2--2--1------
    D|-------0h4-------4--4--2------
    A|-0h4-------------4--4--2------
    E|---------------2-2--2--0------…
  • Tune down half a step! (Eb Ab Db Gb)
    
    Eb --5-5-5-5-5-5-5-5-|-5-5-5-5-5-5-5-5-|-4-4-4-4-4-4-4-4-|-4-4-4-4-4-4-4-4--Eb --5-5-5-5-5-5-5-5-|-5-5-5-5-5-5-5-5-|-7-7-7-7-7-7-7-7-|-7-7-7-7-7-7----Gb ------------------|-----------------|-----------------|------------21----
    Db…
  • Intro:
    G|----------------------------------------------9-8-9-|
    D|----------4/9-9-9--97-7-7--7/11-11-11-119-9-------|
    A|-0/7-7-7--------------------------------------------|
    E|----------------------------------------------------|
    
    Verse…
  • 1/2 step down and dropped D --> Db Ab Db Gb Bb Eb
    
     Fig.1 (bass)
    |------------------------------------------|
    |------------------------------------------|
    |------------------------------------------|
    |-0-0-0-0-0-5/-10-10-10-9-9-9-3-3-3-2-2-2-|…
  • e|------------------------------------------|
    B|------------------------------------------|
    G|------------------------------------------|
    D|-0----0----0---0--------------------------|
    A|-9---12----7--10--------------------------|
    E|-7---10----5---8--------------------------|…
  • Tuning: standard
    
    (listen to the song for strum patterns)
    
    
    E---------------------------------------------------
    B---------------------------------------------------
    G-----6--5--8---------------------------------------
    D-----6--6--6---------------------------------------
    A-----4--4--4---------------------------------------
    E---------------------------------------------------
    
    Guitar…
  • half a step down tunning  EbAbDbGbBbEb
    
    / = slide up
     = slide down
     = harmonics
    ~ = bend 
    ( ) = mute the strings displayed
    h = hamer on
    
      Intro (part 1)
    Eb
    Bb
    Gb             x8
    Db 
    Ab
    Eb
     
      Intro
    Eb        
    Bb       10…
  • [Riff 1] - Verse riff
    Gb:----------------|
    Db:----------------|
    Ab:-------7--5--7--|
    Eb:0-0-0-----------|
    
    
    [Riff 2] - Get it on, get it on...
    Gb:----------------|
    Db:----------------|
    Ab:----------------|
    Eb:-3-------2---1--|
    
    [Riff…
  • h=Hammer on
    p=pull off
    
    Verse:
    G|--------------------------------|
    D|-----4------6-4p3---3h4p3-------|
    A|---2---2----------4-------4h6-8-|
    E|-4------------------------------|
    
    Pre-Chorus:
    (where does it stop, where does…
  • Tuning: Standard (E,A,D,G)
    
    Intro/Verse:
    G-|----------------------------------------------------------------------------------|
    D-|----------------------------------------------------------------------------------|
    A-|----------------------------------------------------------------------------------|
    E-|-2-0-0-0-0-0---2-0-2-0-0-0-0-0-0-0------------------------------------------------|
    
    Interlude:
    G-|----------------------------------------------------------------------------------|
    D-|----------------------------------------------------------------------------------|
    A-|----------------------------------------------------------------------------------|
    E-|--2-2-2-2-2-2-2-2---3-3-3-3---5-5-5-5---------------------------------------------|
    
    Pre-Chorus:
    G-|----------------------------------------------------------------------------------|
    D-|----------------------------------------------------------------------------------|
    A-|-5-5-5-5-5-5-5-5---3-3-3-3-3-3-3-3---5-5-5-5-5-5-5-5---3-3-3-2-2-2----------------|
    E-|--------------------------------------------------------------------3-2-----------|
    
    Chorse:
    G-|----------------------------------------------------------------------------------|
    D-|----------------------------------------------------------------------------------|
    A-|-----------------------------3-3--3-3-3--3---5------------------------------------|
    E-|-0-0--0-0-0--0-2-2--2-2-2--2---------------------3--2-----------------------------|
    
    G-|----------------------------------------------------------------------------------|
    D-|----------------------------------------------------------------------------------|
    A-|-----------------------------3-3--3-3-3--3-0-0-0-0-0-0-0-0------------------------|
    E-|-0-0--0-0-0--0-2-2--2-2-2--2------------------------------------------------------|
    
    Bridge…
  • Guitar 1 
    
    E|-------------------------------------------------------| 
    B|------------------------------------3h4p3---------3----| 
    G|----------------------------------5---------3-------3--| 
    D|--------------------------------5---------5---5-5------|…
  • Tune down half a step and drop to a Db! (Db Ab Db Gb)
    
    Main Riff
    --------- 
    
    Gb --------------------------------------------------
    Db -------3-3-5-5-----------------3-3-5-5------------
    Ab -----5-----------------------5--------------------
    Db…
  • D   G   D   G
    
      D                      G                   Em
    Your life has been so hard,     it's dried up angels.
    
      C                                D                 G
    Can't keep guard and,     i'm trying to reach your…
  • Tuning: down a half step 
    
    Verse 
    E|-------------------------------------------| 
    B|-------------------------------------------| 
    G|--------------------------------------2-5--| 
    D|--5-7-4-------5-7-4-------5-7-4-------2-5--|…
  • This song is played with the E string tuned down to C#.
    
    The different section of this song are actually composed of four different
    parts:
                                                                Intervening Bit
       Main…
  • Tune down half a step!  (Eb Ab Db Gb)
    Then tune your Eb down to a C#!
    You'll have to figure out the rhythm yourself, but it's not too hard..
    The (#)'s represent part numbers..
    
    
    Intro
    -----
    
    0:04 (1)
    Gb ------------------------------|------------------------------
    Db…
  • OLP Tunning
    Eb ab db gb bb eb
    
     = slide down
    / = slide up
    
    ***Done In Order Of Song***
    
             8X           2X           2X
    eb-|--------0----|---------0---|--------0---|
    bb-|------6---6--|------6----6-|------6---6-|
    gb-|----7--------|----7--------|----7-------|
    db-|--0----------|--6----------|--5---------|
    ab-|-------------|-------------|------------|
    eb-|-------------|-------------|------------|…
  • Intro:
    
    ----------------------------------------|
    -------------------4---4---4---4--------|
    ---------5-5-5-7-----7---7---7---7------|
    -------5-5-5-5-7------------------------|
    -2-2-2-5-3-3-3-5------------------------|
    -0-0-0-3--------------------------------|
    
    Bridge:
    -------------------------------------------------------------------------------|
    -------------------------------------------------------------------------------|
    -------------------------------------------------------------------------------|
    -10-10-10-10-10-10-10-10-10-10-10-10-10-10-10-10-10-10-10-10-10-10-10-10-10-10-|
    -8--8--8--8--8--8--8--8--8--8--8--8--8/-7--7--7--7--7--7--7--7--7--7--7--7--7--|
    -------------------------------------------------------------------------------|
    
    Verse:…
  • F#m           D            C#m
    Goodbye, the future's sold out
    A         A/G   
    There's no use screaming
    F#m        D               C#m
    Who thought we'd ever get this far
    
    (bass slap muted)
    
    (Same chords for the voice pedal…
  • Verse:
    G----|------------------------------------------------------------
    D----|------------------------------------------------------------
    A----|-----6-4-----6-4-----6-4-----6-4-----6-4-----6--------------
    D-0-0|-0-0-----0-0-----0-0-----0-0-----0-0-----0-0--5--5-5-3--3-3-
    ^intro…
  • Tuning low to high (Eb Ab Db Gb Bb Eb)
    
    Intro X3
    
    e|-------------|
    B|-------------|
    G|-------------|
    D|-0--0--000---|
    A|-9--9--999---|
    E|-7--7--777---|
    
    Verse 1
    
    e|-------------------------------------------------------------|
    B|-------------------------------------------------------------|
    G|-------------------------------------------------------------|
    D|-0--0--000----------0--0--000----------0--0--000-------------|
    A|-9--9--999----------9--9--999----------9--9--999-------------|
    E|-7--7--777----------7--7--777----------7--7--777-------------|…
  • Intro:
    
    Eb-------5--0-------(5)-|
    Bb-3--3--3--3--3--3-(5)-|
    Gb-2--2--0--0--2--0--2--|
    Db-0--3--2--2--0--0--2--|
    Ab-3-----------3--2--0--|
    Eb----------------------|
    
    verse:
    
    Eb--------0--|-------5---|
    Bb-3---3--5--|-3--3--5---|
    Gb-2---4--5--|-2--2--2---|
    Db-0---0-(0)-|-0--3--2---|
    Ab-0---0-(0)-|-3-----2---|
    Eb-----------|-----------|
    
    Eb--------0--|-----------|
    Bb-3---3--5--|-3--3--3---|
    Gb-2---4--5--|-2--2--2---|
    Db-0---0-(0)-|-0--3--0---|
    Ab-0---0-(0)-|-3-----0---|
    Eb-----------|-----------|
    
    chorus:
    
    Eb-0-2-0---0-----0-----0---|
    Bb-3-----3---3-3---3-3---3-|
    Gb-2-----0-----0-----0-----|
    Db-0-----0-----0-----0-----|
    Ab-0-----3-----2-----1-----|
    Eb-------------------------|…
  • from Uh Oh till whit happiness.....
    its all
    e
    b
    g
    d   5 ---->   pretty silent....
    a   5
    e   3
    
    then chorus
    
    e
    b    
    g  5
    d  5   7  5 
    a  3   7  5
    e      5  3  1 3 1 3 1 3  - if u want
                 -----------
     
    that your…
  • tunning: Eb Ab Db Gb Bb Eb
    
    h = hammer on
    p = pull off
    ~ = wiggle and bend
    / = slide down
    = slide up
    
    listen to the cd and get the timing and order for the song and the begining
    muting (x) fret 1 with bar chord
    
    Intro -…
  • OLP tunning:
    Eb ab db gb bb eb
    
    ****************
     = slide down *
    / = slide up   *
    [x] = harmonic *
    ****************
    
    Timing not shown (strumming not shown)
    on the first part there are 3 overdubs
    
        goes
      all the|   |…
  • OLP TUNNING : Eb Ab Db Gb Bb Eb
    
    ***Done in order of how song goes****
    (follow the timing of the song.... )
    
             X2       overtop main part
    eb-|--------------|-------|
    bb-|--------------|-------|
    gb-|--------------|---4---|
    db-|-9--12--7--5--|---4---|
    ab-|-9--12--7--5--|---2---|
    eb-|-7--10--5--3--|-------|…
  • STANDARD tuning (EADGBe).  
    
    Now this song is syncopated, which means the notes are played on the 
    off-beats.  So you'll have to listen to the song to pick up the rhythem.  
    But it sounds great.INTRO:  (this is played all…
Наверх