Аккорды «Overkill»

Overkill
Overkill — американская трэш-метал-группа, основанная в 1980 году в Олд Бридж Тауншип, штат Нью-Джерси. Дискография группы насчитывает 16 студийных альбомов, 5 EP, 3 концертных альбома и альбом каверов. Overkill по праву считаются одними из первопроходцев трэш-метала и одними из изобретателей звука грув-метала. Состав группы претерпел неоднократные изменения, и единственными неизменными участниками Overkill с момента основания являются вокалист Bobby "Blitz" Ellsworth и басист D.D.… Читать полностью... Overkill — американская трэш-метал-группа, основанная в 1980 году в Олд Бридж Тауншип, штат Нью-Джерси. Дискография группы насчитывает 16 студийных альбомов, 5 EP, 3 концертных альбома и альбом каверов. Overkill по праву считаются одними из первопроходцев трэш-метала и одними из изобретателей звука грув-метала. Состав группы претерпел неоднократные изменения, и единственными неизменными участниками Overkill с момента основания являются вокалист Bobby "Blitz" Ellsworth и басист D.D. Verni. У группы есть талисман по имени Чарли, который нарисован на большинстве обложек их альбомов - это что-то типа скелета летучей мыши с черепом, костлявыми крыльями и зелёными глазами. Overkill была образована в 1980 году на остатках панк-группы The Lubricunts, в которой участвовали Rat Skates и D.D. Verni (настоящие имена Lee Kundrat и Carlo Verni). Они разместили объявление о поиске вокалиста и гитариста, на которое и отозвался Bobby Ellsworth. Таким образом был сформирован первый состав группы Overkill, однако прежде чем выбрать это название группа перебрала несколько других, например, Virgin Killer. Ранние песни, особенно те, которые группа исполняла под именем Virgin Killer, были каверами таких панк-групп, как The Ramones, The Dead Boys и др. К концу 1980 года группа пополнилась двумя гитаристами и стала исполнять песни группы Motörhead (саму песню Overkill, с которой группа и взяла своё конечное название, половину песен с альбома Ace of Spades), Judas Priest и Riot. Несмотря на то, что группа исполняла панк-каверы, ребята играли с большей скоростью и энергией и другими элементами хэви метала, что позволяет отнести их к одним из первых групп трэш-метала. В 1983 году группа в составе Rat Skates, D.D. Verni, Bobby Gustafson и Bobby "Blitz" Ellsworth выпустила демо-запись Power In Black, которая произвела фурор в андерграундных околомузыкальных кругах (сопоставимых с записями Exodus и Testament). Power In Black дал возможность Overkill появиться на двух сборниках: песня Feel the Fire была включена в сборник "New York Metal '84", а песня Death Rider появилась на пятом сборнике из легендарной серии Metal Massacre. Кроме того группа смогла подписать небольшой контракт со студией Azra/Metal Storm Records, где в 1984 году записала свой EP Overkill с четырьмя песнями, который имел успех и весь выпуск которого был быстро распродан. Это выдвинуло группу в авангард набиравшего силу трэш-метала. Хотя, как утверждается, участники группы никогда не увидели денег от выпуска EP, пластинка вызвала огромный интерес к группе и привлекла внимание Джона Зазулы, владельца Megaforce Records, одного из наиболее известных хэви-метал лейблов. Megaforce Records подписал с группой контракт на несколько альбомов и выпустила в 1985 году их первых полноценный альбом Feel The Fire. Этот альбом, называемый критиками и фанами шедевром трэш-метала, утвердил группу, как одну из основных групп трэш-метала на восточном побережье США. Группа провела большую часть 1985 и 1986 гг. в турне в поддержку альбома Feel the Fire, начиная тур в США на разогреве у Megadeth, а затем гастролируя по Европе с Anthrax и Agent Steel. 1987 год отмечен выходом второго альбома Overkill Taking Over; это первый альбом, выпущенный Megaforce в сотрудничестве с крупным лейблом Atlantic Records. В альбоме заметен более высокий уровень написания песен и записи музыки, кроме того, альбом имел более "эпический" стиль, что отражается в таких песнях, как In Union We Stand. Эта песня была выбрана для съёмки первого клипа Overkill, использованного для продвижения популярности группы в новую эру музыкального телевидения. Позже в этом же году последовал новый европейский тур, на этот раз с группой Helloween. В конце 1987 года вышел новый EP группы под названием !!!Fuck You!!!, состоящий из непосредственно песни "Fuck You", а также нескольких записей в живую, сделанных раннее на концерте в Кливленде. Кроме того в 1987 году из группы ушёл барабанщик Rat Skates, который на несколько выступлений был заменён Mark Archibole, а потом уже на постоянной основе датчанином Bob "Sid" Falck из группы экс-вокалиста Iron Maiden Пола ДиАнно Paul Di'Anno. В 1988 году Overkill выпускают свой следующий студийный альбом Under the Influence, который отличался от предыдущего более грубым и "забойным" звучанием, потеряв "эпический" стиль альбома Taking Over, поэтому он воспринимается сыроватым и считается, как шаг назад в творчестве группы. Песня "Hello From The Gutter" была выпущенна сингом и клип на эту песню постоянно крутился по MTV. Overkill продолжала постоянно гастролировать по всему миру, укрепляю свою репутацию, как одна из лучших метал-групп, играющих в живую. В 1989 году Overkill выпускает прорывной альбом The Years of Decay, который до сих пор считается лучшим в творчестве группы. В нём сочеталось жёсткое и грубое звучание Under the Influence с более сложными композициями и "эпическими" элементами, как на Taking Over, что привело к появлению более серьёзной музыки и более продолжительным композициям, включая восьмиминутный заглавный трек и десятиминутный "Playing With Spiders/Skullkrusher". Скоростная и жёсткая композиция "Elimination" была выпущена отдельным синглом и постоянно крутилась по MTV в передаче Headbangers Ball. Композиция имела большой успех у поклонников группы и впоследствии постоянно исполнялась на всех концертах даже много лет спустя. На гастроли в поддержку альбома The Years of Decay группа отправилась вместе с группой Testament. Несмотря на успех The Years of Decay, в конце 1990 года из группы уходит Густафсон из-за разногласий с другими сторожилами группы по поводу того, как Overkill должна развиваться в дальнейшем. Бобби Элсуорт на его место решил пригласить сразу двух гитаристов. Роб Каннавино (Rob Cannavino), который был гитарным техником Густафсона, и Мерит Грант (Merit Grant) из группы Faith Or Fear очень удачно вписались в коллектив, который в следующем году предложил публике отличный альбом "Horrorscope", развеяв страхи поклонников насчёт того, что уход Густафсона развалит группу. Новые гитаристы внесли свежую струю в музыкальную концепцию Overkill. Был достигнут более высокий уровень в плотности звучания, возросла напряженность и динамичность саунда. Наряду с альбомами Metallica и Sepultura "Horrorscope" входит в первую тройку лучших трэш-релизов 1991 года. Название альбома - это просто удачный каламбур, придуманный Верни. Первоначально планировалось назвать пластинку "Bare Bones" ("Обнаженные кости"), но потом решили, что "Horrorscope" мрачнее. По технике продюсирования диск не претерпел существенных изменений, это доказывает, что группа всегда знала, к какому звучанию стремилась. После сопутствующих гастролей ретировался не являвшийся большим фанатом трэша Фальк, и установку занял Тим Малларе из "M.O.D.". В 1993 году "Overkill" вернули в продюсерское кресло Периалеса, и записали диск "I Hear Black". Существенно отличающийся от других опусов хард-роковой направленностью, этот альбом стал наивысшим чартовым достижением группы (№ 122 в "Billboard"). Впрочем, старым фанатам команды нововведения пришлись не по душе, и на самоспродюсированном "W.F.O." коллектив вернулся к классическому шустрому трэшу. К сожалению, гранжевые ветры успели сделать такую музыку малопопулярной, и "Overkill" были уволены с "Atlantic". После концертника "Wrecking Your Neck" отбыли Каннавино и Гант, а вместо них гитары подхватили Джо Комю из "Liege Lord" и Себастьян Марино из "Anvil". Если в "The Killing Kind" группа впрыснула в трэш порцию хардкора, то на "From The Underground And Below" появился индустриальный привкус. В 1999 году вышли сразу две "оверкиллоских" пластинки – оригинальный альбом "Necroshine" и кавер-программа "Coverkill" с песнями оказавших на группу наибольшее влияние исполнителей ("Black Sabbath", "Motorhead", "Ramones", "Sex Pistols" и т.д.). Незадолго до релиза "Necroshine" Марино решил посвятить себя семейным делам, а гитарную эстафету от него принял Дэйв Линск. В 2000 году команда гастролировала в компании с "Annihilator", и вскоре к ним ушел Комю, так что на очередные сессии "Overkill" прибыли вчетвером. Если на "Necroshine" коллектив позволял себе кое-какие отклонения от генерального курса, то на "Bloodletting" вновь зазвучал фирменный синеворотничковый трэш. Когда у Верни должен был родиться ребенок, басиста временно подменял Дерек Тэйлер, а по возвращении Ди Ди в строй новобранец остался в штате, но уже в должности второго гитариста. В 2002-м музыканты заключили контракт со "Spitfire Records", и выпустили на этом лейбле пару "номерных" пластинок, "Killbox 13" и "ReliXIV" (причем особый интерес публики вызвала первая из них, возвращавшая слушателя в эпоху "Feel The Fire"). Сменив Малларе на экс-ударника "Hades" Рона Липницки, команда сделала короткую остановку на лейбле "Bodog", где вышел диск "Immortalis". В дальнейшем "Overkill" перебрались под крышу "Nuclear Blast" и дебютировали там с пластинкой "Ironbound". Этот альбом, который обозреватели назвали "трэшедевром", впервые со времен "I Hear Black" дал группе возможность побывать в "Billboard Top 200". С тех пор прошло всего два года, как обретший второе дыхание коллектив выдал не менее мощную программу "The Electric Age". Состав: Bobby "Blitz" Ellsworth - вокал D.D. Verni - бас-гитара Dave Linsk - гитара Derek Tailer - ритм-гитара Ron Lipnicki - ударные Бывшие участники: Rat Skates - ударные Robert "Riff Thunder" Pisarek - гитара Dan Spitz - гитара Rich Conte - гитара Mike Sherry - гитара Anthony Ammendolo - гитара Bobby Gustafson - гитара Joe - гитара Mark Archibole - ударные Bob "Sid" Falck - ударные Merritt Gant - гитара Rob Cannavino - гитара Tim Mallare - ударные Sebastian Marino - гитара Joe Comeau - гитара, вокал Скрыть...
Популярные аккорды Overkill:
алфавиту | просмотрам | случайно
  • play3 times          (riff1)                               
    E------------|----------------------------------------------------------
    B------------|----------------------------------------------------------
    G---5-----7--|--9--------9-----------9--------9-----------9--------9----
    D---5--5--7--|--9--------9--------8--9--------9--------8--9--------9----
    A---3--5--5--|--7--------7--------8--7--------7--------8--7--------7----
    E------3-----|-----0--0-----0--0--6-----0--0-----0--0--6-----0--0-------…
  • Guitar
    
                                                                                           
    E||------------0--0h1p0--------|-----------0--0h1p0--------|--------------3-----------|
    B||---------3------------3-----|--------3------------3-----|-----------3-----3--------|
    G||*-----2------------------2--|-----2------------------2--|--------0-----------0-----|
    D||*--0------------------------|--0------------------------|-----0-----------------0--|
    A||----------------------------|---------------------------|--1-----------------------|
    D||----------------------------|---------------------------|--------------------------|…
  • Guitar
    
    More of this song soon to come
                                                                                 
    D#||-------------------------------------||---------------------------------|
    A#||-------------------------------------||---------------------------------|
    F#||-------------------------------------||*--------------------------------|
    C#||-------------------------------------||*--------------------------------|
    G#||--4/6---4----------------------------||-------6/7------------6/7--------|
    D#||-----------5--4----4h5h6-5--4--2-1r--||---0-0-4/5--0-0-0-0-0-4/5--0-0-0-|…
  • Guitar 1
    
          ^        ^        ^        ^        ^      ^    3x
    E||----------------------------------------------------||
    B||----------------------------------------------------||
    G||*--------------------------------------------------*||
    D||*--15-15-15-15-15-15-15-15-15-15-15-15-15-15-15-15-*||
    A||----------------------------------------------------||
    D||----------------------------------------------------||
    
    Bass…
  • E||-------------------|--7----------------|
    B||-------------------|--8----------------|
    G||--9----------------|--9----------------|
    D||--9----------------|--9----------------|
    A||--7----------------|-------------------|
    E||--0----------------|-------------------|…
  • ..  - palm mute          /  - slide up to
       - slide down to      ~  - vibrato
     h  - hammer on          b  - bend
     p  - pull off            Suffixes for bend
                              ph - pinch harmonic…
  • [Palm Muted = *]
    [Emphasise = E]
    
    INTRO
    Gtr.1
    |-3---3---3---3-|
    |-3---3---3---3-|
    |-1---1---1---1-|
    |---------------|
    |---------------|
    |--00--00--00---|Repeat Around 17 Times While Lead Plays Gtr.2
       **  **  **
    Gtr.2
    |-----------------------------------------------------------------------|
    |-----------------------------------------------------------------------|
    |-----------------------------------------------------------------------|
    |---------------------------------------------------------------------1-|
    |---------------------------------------------------------------------1-|
    |-0-3-2-3-2-0-3-2-3-2-0-3-2-3-2-1111111-0-3-2-3-2-0-3-2-3-2-0-3-2-3-2-1-|
    
    Main…
  • Standard Tuning
    
    Intro
    
    |---------------------------------------|
    |---------------------------------------|
    |---------------------------------------|
    |-------12--------11--------10-------9--|
    |-------10--------9---------8--------7--|
    |-0-0-0-----0-0-0-----0-0-0----0-0-0----|…
  • 7x
    E||---------------------------------|--------------------------------||
    B||---------------------------------|--------------------------------||
    G||*--------------------------------|-------------------------------*||
    D||*--------------------------------|-------------------------------*||
    A||---------------------------------|--------------------------------||
    E||---0--0-0-3-2-0-0-0--0-0-3-2-0-0-|--0--0-0-3-2-0-0-0--0-0-3-2-5---||…
  • Intro: Bass part                                                 
    E||-------------------------|------------------------|
    B||-------------------------|------------------------|
    G||*------------------------|------------------------|
    D||*------------------------|------------------------|
    A||-------------------------|------------------------|
    D||---0h2---2--2----2--2----|--0h2---2--2----2--2----|…
  • Intro: Gtr II fades in with an E power chord with lots 'o feedback...
    
    Gtr I (accoustic, let notes ring)
                                       end  repeat
       RhyFig1                     RhyFig1 RhyFig1
       Emadd9           Cmaj7sus#4…
  • D#||-----------------------------------|--------------------------------|
    A#||-----------------------------------|--------------------------------|
    F#||*----------------------------------|--------------------------------|
    C#||*----------------------------------|--------------------------------|
    G#||-------------------------------0h1-|--------------------------------|
    D#||---2-2-2-2-2-2-2-2-2-2-2-2-2h3-----|--2-2-2-2-2-2-2-2-2h3p0--2h3-0--|…
  • E||---------------------------------------|
    B||---------------------------------------|
    G||*--------------------------------------|
    D||*-----------5--4--2--4--2-----2--------|
    A||---------------------------5-----5--3--|
    E||---0--0--0-----------------------------|…
  • Guitar
    
                                                                                                  
    E||----------------------------------|---------------------------|------------------------------|
    B||----------------------------------|---------------------------|------------------------------|
    G||----------------------------------|---------------------------|------------------------------|
    D||----------5--4--------7--6--------|---------------------------|------------------------------|
    A||----------3--2--6--5--5--4--7--6--|--10--8--7--8--8--7--5--7--|------------------------------|
    E||--0-0-0-0-------4--3--------5--4--|--8---6--5--6--6--5--3--5--|--0-0-0-0-6--5--0-0-0-0-6--5--|…
  • Intro:                                                   
    D||--------------------------|---------------------------|
    A||--------------------------|---------------------------|
    F||*-------------------------|---------------------------|
    C||*-------------------------|---------------3h5p3-------|
    G||---------5p3----3----5----|--------5p3-----------4----|
    C||---0---0-----0------------|--0---0-----0--------------|…
  • Let ring 
    -------------------------------------0----------------------------------------
    ----------------4----5----5----3---------3------------------------------------
    -0----0----4----4----5----5----4-------------4-------------------------------
    -2----2-----------------------------------------------------------------------
    -----------2----2----3----3----2----------------------------------------------
    -0----0-----------------------------------------------------------------------…
  • intro play 4x       (last time)
    
      |------------------|---| 
      |------------------|---|              
      |------------------|---|
      |------------------|---|
      |-7-7-7-7-7-7-7-7--|-7-| 
      |-5-5-5-5-5-5-5-5--|-5-|
    
    
      riff…
  • Starts out with wind effects as the guitar fades in
    
    riff1          play8 times                            riff2             
    ---------------------------------------------------|--------------------
    ---------------------------------------------------|--------------------
    ------6--------7--------6--------7--------6--------|--------4-----------
    4--4-----4--4-----4--4-----4--4-----4--4-----4--4--|--2--2-----2--2-----
    ---------------------------------------------------|--------------------
    ---------------------------------------------------|--------------------…
  • play twice riff 1                      
    ------------------------------|-----------------------------------------
    ------------------------------|-----------------------------------------
    4--3--4--6--4--3--------------|-----------------------------------------
    2--1--2--4--2--1--4--3--------|--------9--------------------------------
    ------------------2--1--2-----|--------7--------------------------------
    ------------------------0-----|-----------0--0--0--0--0--0--0--0--0-----…
  • E||----------------------|------------------|
    B||----------------------|------------------|
    G||----------------------|------------------|
    D||----------------------|------------------|
    A||--12--11--------------|------------------|
    E||--10--9---------------|------------------|…
  • Opening                                                       
    E||---------------------------|--------------------------|
    B||---------------------------|--------------------------|
    G||*--------------------------|--------------------------|
    D||*--------------------------|--------------------------|
    A||---0--2--3--2--x--2--x--3--|--0--2--3--2--x--5--x--6--|
    D||---0--2--3--2--0--2--0--3--|--0--2--3--2--0--5--0--6--|…
  • Intro:A                                                                               
    E||--------------------------|----------------------|--------------------------|
    B||--------------------------|----------------------|--------------------------|
    G||*-------------------------|----------------------|--------------------------|
    D||*-------------------------|----------------------|--------------------------|
    A||--------------------------|--------------4--3--2~|--------------------------|
    E||---0--0--2--5--2--0--2~---|--0--0--2--5----------|--0--0--2--5--2--0--2--0--|…
  • riff1             pm                pm          play 4 times            
    ------------------------------------------------------------------------
    ------------------------------------------------------------------------
    ------------------------------------------------------------------------
    ------------5--7--------------8--7--------------5--7--8--5--------------
    0--0--0--0--3--5--0--0--0--0--6--5--0--0--0--0--3--5--6--3--------------
    ------------------------------------------------------------------------…
  • E||------------------------------|------------------------------|
    B||------------------------------|------------------------------|
    G||------------------------------|------------------------------|
    D||--9--9-9---9----------5p0-----|--9--9-9----------------------|
    A||--7--7-7---7--5p0---------5p0-|--7--7-7---0--2p0p3p0-2p0-----|
    E||--0--0-0---0------5p0---------|--0--0-0------------------3p0-|…
  • Lead Guitar
                                                                                    
    E||-----------|--------------------------------|-------------------------------|
    B||-----------|--------------------------------|-------------------------------|
    G||-----------|--------------------------------|-------------------------------|
    D||-----------|-------------------------5------|-------------------------------|
    A||--4--------|--4-------7--------------3------|----------7----------------5---|
    E||--2--------|--0h2-0-0-5--0-0-0h2-0-0----0-0-|--0h2-0-0-5--0-0-0h2-0-0-2-3---|…
  • ..  - palm mute          /  - slide up to
       - slide down to      ~  - vibrato
     h  - hammer on          b  - bend
     p  - pull off            Suffixes for bend
                              ph - pinch harmonic…
  • Tune down 1/2 step
    
    
    |--------------------------------------------------------------------------
    |--------------------------------------------------------------------------
    |----9--9-----8--8-----7--7-----6--6-----9--9-----8--8-----7--7-----6--6---
    |---7--7-7---7--7-7---7--7-7---7--7-7---7--7-7---7--7-7---7--7-7---7--7-7--
    |--------------------------------------------------------------------------
    |-5--------5--------5--------5----53/5--------5--------5--------5-----(5)
    
    
    |-----------------------------------------------------------------------
    |----8--8----8---8----8---8----8---8-----8--8-----8--8----8---8---8---8-
    |---9--9-9----9-9-9----9-9-9----9-9-9---9--9-9---9--9-9----9-9-----9-9--
    |-----------------------------------------------------------8-------8---
    |-----------------------------------------------------------------------
    |-0--------6--------5--------6--------0--------0--------6-------6-------
    
    
    |--------------------------------------------------------------------------
    |---8---8---8---8-----8--8--8--8--8--8--8--8----------8--8-----------------
    |----9-9-----9-9-----9--9--9--9--9--9--9--9----------9--9-9----------------
    |-----7-------7------------------------------------------------------------
    |--------------------------------------------------------------------------
    |-5-------5---------6--5--6--5--6--5--6--5--6-5-3-2-0------0---------------
    
    
    |----------------------------------------------------------------------------|
    |----------------------------------------------------------------------------|
    |----9--9-----8--8-----7--7-----6--6-----9--9-----8--8-----7--7-----6--6-----|
    |---7--7-7---7--7-7---7--7-7---7--7-7---7--7-7---7--7-7---7--7-7---7--7-7----|
    |----------------------------------------------------------------------------|
    |-5--------5--------5--------5----53/5--------5--------5--------5--------5_-|
    
    
    
    ||--------------------------------------||
    ||--------------------------------------||
    ||.------------------------------------.||
    ||.-7------7------7------7------5--7/8-.||
    ||--7------7------7------7------5--7/8--||
    ||--5-5555-5-5555-5-5555-5-5555-3--5/6--||…
  • Legend:
    -------
    
    h    hammer on
    p    pull off
    .    plam mute
    ~    vibrato
    /    slide down
        slide up
    
    
    e|-----------------------------------------------------------|
    B|-----------------------------------------------------------|
    G|-----------------------3-2---------------------------------|
    D|------2---3---5---3---2---3-------2---3---5---3----3-3-----|…
  • 3x                              3x
    D||-------------------------|------------------------||------------------------------||
    A||-------------------------|------------------------||------------------------------||
    F||*------------------------|------------------x----*||*----------------------------*||
    C||*--9----9--9--9----9--9--|--9----9--9--9----x----*||*----------------------------*||
    G||---7----7--7--7----7--7--|--7----7--7--7----x-----||---2-2-2-2-2----2-2-2-2-2-----||
    D||---0----0--0--0----0--0--|--0----0--0--0----------||---0-0-0-0-0----0-0-0-0-0-----||…
  • Taune down 1/2 step
    
    
      clean
    ||--------------------------------|---------------------------------||
    ||-------1_---1-----3-----0-----1-|-----------------0---0_--(1)/3-1-||
    ||.----2----2---2-4---4-----0-2---|------2_---2-------0----0-------.||
    ||.-------------------------------|----3----3---3------------------.||
    ||--0_------------2---------------|-0_------------------------------||
    ||----------------------3---------|---------------3-----------------||…
  • D||------------------------|-------------------------|
    A||------------------------|-------------------------|
    F||--11--------14----16----|--13--------14---13---9--|
    C||--11--------14----16----|--13--------14---13---9--|
    G||--9---------12----14----|--11--------12---11---7--|
    D||------------------------|-------------------------|…
  • play 3 times (riff1)                                           
    E-----|-----------------------------------------------------------------
    B-----|-----------------------------------------------------------------
    G-----|--2-----------------3-----------------3-----4-----6-----3--------
    D---7|--2-----------------1-----------------1-----2-----6-----1--------
    A-----|--0--0--0--0--0--0-----0--0--0--0--0-----0-----0--4--0-----0-----
    E-----|-----------------------------------------------------------------…
  • Starts out with drum intro               
    
    
                   play 2 times         (riff1)                             
    E-----------|-----------------------------------------------------------
    B-----------|-----------------------------------------------------------
    G---9--9--9-|-----------7--9-----------4--5-----------7--9--------------
    D---9--9--9-|-----------7--9-----------4--5-----------7--9--------------
    A---7--7--7|-----------5--7-----------2--3-----------5--7--5-----7-----
    E-----------|--0--0--0--------0--0--0--------0--0--0--------------------…
  • Tuned: Drop D
    
    E||-------------------------|------------------------|------------------------|
    B||-------------------------|------------------------|------------------------|
    G||*------------------------|------------------------|------------------------|
    D||*------------------------|------------------------|------------------------|
    A||---0-------------6----3--|--0-------------6----3--|--0-------------6----3--|
    D||---0----0--0--0--6----3--|--0----0--0--0--6----3--|--0----0--0--0--6----3--|…
  • Intro (clean electric w/ chorus?)_
    
    ------------------------------------------------------------------------------
    ------------------------------------------------------------------------------
    -------------------2---0------------------------------------------------------
    -4---4-------4----4--------4---2---------------2--------------2---------------
    -5-------5-------5-----------------4-------4--------------4-------4-----------
    ---------------------------------------5--------------5---------------5-------
    
    
    ------------------------------------------------------------------------------
    ------------------------------------------------------------------------------
    ------------------------------------------------------------------------------
    -0-------0-------0------2-----0----0---------------7-------------------------
    -2---2-------2---2------2-----2--------4-----------7-------------------------
    -------------------------------------------5---0---5-------------------------…
  • Intro:                                        3x  Behind Intro:                   
    D#||------------------------|------------------------||--------------------|
    A#||------------------------|------------------------||--------------------|
    F#||*-----------------------|-----------------------*||*--10--------10-9--|
    C#||*-----------------------|-----------------------*||*--10--------10-9--|
    G#||---3-3-32--2----2------|--3-3-32--2----2-------||---8---------8--7--|
    D#||---1-1-1p0--0----0----0-|--1-1-1p0--0----0----0--||--------------------|…
  • play riff1 3 times                                                  
    E-----------------------------------------------------------------------
    B-----------------------------------------------------------------------
    G---------------------------7--7--------------------------7--7--7-------
    D---------------------------7--7--------------------------5--5--5-------
    A---------------------------5--5----------------------------------------
    E---0--0--0--0--0--0--0--0--------0--0--0--0--0--0--0--0-----------0----…
Наверх