Аккорды Passion Pit - Swimming in the Flood

Добавлено: @romashka
Дата добавления: 30 Ноября 2022г.
Рейтинг:
0.0
Просмотров: 31
Транспонировать - +
[Вступление] 2 раза
   Dm7              C
1)-8----8---8---8---5----5---5---5---
2)-----------------------------------
3)----7---7---7---7----5---5---5---5-

   Gm7              Am7
1)-1----1---1---1---3----3---3---3---1-
2)----1---1---1---1----1---1---1---1---


[Куплет 1]
Dm7  C
My eyes
Gm7         Am7           Dm7
Have once again inproven me
       C
Your cloud
Gm7          Am7
Your blanket & my pity song
   Dm7              C
1)-8----8---8---8---5----5---5---5---
2)-----------------------------------
3)----7---7---7---7----5---5---5---5-

   Gm7              Am7
1)-1----1---1---1---3----3---3---3---1-
2)----1---1---1---1----1---1---1---1---
                    Hovering on Your front lawn

   Dm7              C
1)-8----8---8---8---5----5---5---5---
2)-----------------------------------
3)----7---7---7---7----5---5---5---5-

   Gm7              Am7
1)-1----1---1---1---3----3---3---3---1-
2)----1---1---1---1----1---1---1---1---
             Carry on until it's gone


[Припев]:
Bb                C
What? What can I do?
     Am            Bb
The river is over run
                      Gm7       Am7
We're swimming in a flood You know
Bb                     C
I thought I felt Your touch
         Am                ***
But the water is rising up...


[Куплет 2]
Dm7     C    Gm7
Then I lie
Am7              Dm7
Naked in a rampage
         C    Gm7
In the flesh
         Am7
Face to face with the onset
   Dm7              C
1)-8----8---8---8---5----5---5---5---
2)-----------------------------------
3)----7---7---7---7----5---5---5---5-
                  I forget

   Gm7              Am7
1)-1----1---1---1---3----3---3---3---1-
2)----1---1---1---1----1---1---1---1---
              Everything thats ever made me

   Dm7              C
1)-8----8---8---8---5----5---5---5---
2)-----------------------------------
3)----7---7---7---7----5---5---5---5-
              Rise again

   Gm7              Am7
1)-1----1---1---1---3----3---3---3---1-
2)----1---1---1---1----1---1---1---1---
         Now I slowly leave my memory


[Припев]:
Bb                C
What? What can I do?
     Am            Bb
The river is over run
                      Gm7       Am7
We're swimming in a flood You know
Bb                     C
I thought I felt Your touch
         Am             Bb
But the water is rising up
                   Gm7         Am7
Now all my lovers raise their cups

[Вставка]
Dm7 C   Gm7 Am7
Dm7 Gm7 E   E(VII)

[Припев]:
Bb                C
What? What can I do?
     Am            Bb
The river is over run
                      Gm7       Am7
We're swimming in a flood You know
Bb                     C
I thought I felt Your touch
         Am             Bb
But the water is rising up
                   Gm7         Am7
Now all my lovers raise their cups

Bb... 

*** - без аккорда.
Наверх