Аккорды Pearl Jam - Sad

Добавлено: @romashka
Дата добавления: 23 Марта 2020г.
Рейтинг:
0.0
Просмотров: 53
Транспонировать - +
e|---------------------------------|
B|---------------------------------|
G|--2------2---2-2-0---2---0---2---|
D|--0--------------------------0---|
A|---------------------------------|
E|---------------------------------|
 
e|---------------------------------|
B|---------------------------------|
G|-----2-2-2---3---5---3---2-------|
D|-----------------------------0---|
A|---------------------------------|
E|---------------------------------|
 
e|---------------------------------|
B|---------------------------------|
G|---------2-------0---2---0-------|
D|-3---3-------3---------------2---|
A|---------------------------------|
E|---------------------------------|
 
e|---------------------------------|
B|---------------------------------|
G|-----0-----------0---2---2---0---|
D|-------------2---------------0---|
A|---------------------------------|
E|---------------------------------|

Dm                      F             Am
All the photographs are peeling, and colors turn
Dm                F                     Am
To gray, he stayin`, in his room with memories
Dm                  F                  Am
for days, he faced,  an undertow of future's laid
Dm                 F                Am                  Dm
to waste, embraced,  by the loss of one he could not replace

               F                  Am    Dm
and there's no reason that she'd passed
              F             Am  Bb        A    Dm
and there is no god with a plan,    it's sad
        F               Bb         A    Dm
and his holiness is proof, it's sad
         F          Bb         A    Dm   F  Am   Dm   F  Am
he could only love you, it's sad

   Dm                             F        Am
The door swings through a passing fable,   a fate we may
Dm            F            Am              Dm
delay, we say, holding on, live within our embrace

          F                Am    Dm
Eleven nights he laid in bed
                F                   Am  Bb       A    Dm
hoping that dreams will bring her back,   it's sad
         F             Bb          A    Dm
and his holiness is proof, it's sad
         F          Bb        A    Dm
he could only love you, it's sad

             C      A      C    A          Dm
Holding his last breath, believing,  he'll make his way
              C     A          C    A          C              A
but she's not forgotten ,  he's haunted,  he's searching for escape

(solo) F   E   Am   C x2   F  E   Dm

            F                     Am  Bb        A    Dm
if just one wish could bring her back,    it's sent
         F              Bb         A    Dm
and his holiness is proof, it's sad
        F            Bb      A
he will always love you, it's sad
Наверх