Аккорды Pearl Jam - Man Of The Hour

Добавлено: @romashka
Дата добавления: 15 Марта 2016г.
Рейтинг:
0.0
Просмотров: 260
Транспонировать - +
Verse:
e:------------------------------------
B:--------------88-5------------------
G:---55-7-5-7-0-----7-5-5-7-7-5-7-----
D:------------------------------------
A:------------------------------------
E:------------------------------------

e:------------------------------------
B:--------------88-5------------------
G:---55-7-5-7-0-----7-5-5-4-5-7-------
D:------------------------------------
A:------------------------------------
E:------------------------------------

e:------------------------------------
B:------------------------------------
G:---55-------------------------------
D:-----7---5--------------------------
A:-------7----------------------------
E:------------------------------------

Repeat Verse.

Chorus:
e:-----------------------------------
B:----6-6-8-6------5-5-8-5-----------
G:------------4-5-7--------5-4-5-----
D:-----------------------------------
A:-----------------------------------
E:-----------------------------------

e:-----------------------------------
B:---6-5-6------------6-5-6----------
G:---------4-5-7-5---------4-5-7-----
D:-----------------------------------
A:-----------------------------------
E:-----------------------------------

Repeat Verse.  
Chorus.

Chords:
B, C, C, F#,F, E
A, G, F#
(You can bar chord these)

Outro:
e:-----------------------------------
B:---6-5-6---------------------------
G:---------4-5-7-5-------------------
D:-----------------------------------
A:-----------------------------------
E:-----------------------------------(3x)

e:-----------------------------------
B:---6-5-6---------------------------
G:---------4-5-7---------------------
D:-----------------------------------
A:-----------------------------------
E:-----------------------------------(last verse to Outro)

Repeat Verse.



Наверх