Аккорды Перемотка - Мой страх

Добавлено: @romashka
Дата добавления: 20 Октября 2022г.
Рейтинг:
0.0
Просмотров: 23
Транспонировать - +
Аккорды:
Am Dm G C
Am Dm G C
Am Dm G C
Am Dm G C


Дополнение:
G|-0---2

Мелодия на синтезаторе:
B|---3---0---1
G|-2---2---0--

[Соло]:
B|-3---3---3---3---1---0---------
G|-----------------------0---2---

B|-3---3---3---3---1---0---------
G|-----------------------0---2---

B|-1---1---1---0---1--0----------
G|-----------2---2------2---0---2



Мой страх,
Глаза скрывающий во тьме,
Я подарю тебя судьбе.
Несчастный мой страх, зачем ты нужен мне?

Печаль
По осени и по весне.
Оставлю я тебя в земле.
Моя печаль, зачем нужна ты мне?

Мой враг.
Пылают шрамы на щеке.
Тебя отправлю по волне.
Мой злейший враг, зачем ты нужен мне?

Любовь –
Улыбка просится к губам.
И в миг узнаю по глазам
Мою любовь – её я не отдам! 

Темп - 120bpm, бой - шестёрка.
Наверх