Аккорды Песни из мультфильмов - Opening Theme (из мультфильма "Love Hina")

Добавлено: @vitos
Дата добавления: 10 Июля 2016г.
Рейтинг:
0.0
Просмотров: 249
Транспонировать - +
Intro:
   F                 Gm                Bb
E|-5-6-5-------5-6-|-5---------------|-5-6-5-------5-6-|-5---------------|
B|-------6---------|---6-------------|-------6---------|---6-------------|
G|---------5:------|-----5:----------|---------5:------|-----5:----------|
D|-----------------|-----------------|-----------------|-----------------| (x2)
A|-----------------|-----------------|-----------------|-----------------|
E|-----------------|-----------------|-----------------|-----------------|
   1 + 2 + 3 + 4 +   1 + 2 + 3 + 4 +   1 + 2 + 3 + 4 +   1 + 2 + 3 + 4 +


Verse 1:
F                                  F#      Gm
yane no ue de sora o aogu, hizashi wa uraraka
                                     C    F
miageru sora, karadajuu genki ga minagitteku


Pre-Chorus:
A           D          Dm   Gm
THAT'S SO WONDERFUL!   ikiterunda!
C#                          C
yamerarenai, akirameru da nante


Chorus 1:
         F               Gm
tohou ni kureta kinou ni sayonara
       C                  F
futsufutsu to wakiagaru kono kimochi
Dm           Gm        G              C
nando demo yomigaeru,  hana o sakaseyou
     F                Gm
omoi dewa itsumo amai nige basho
       C                  F
dakedo tachi kire, asu o ikiru tame
Dm                  Gm              C    F
shukufuku no toki wa kuru, te o nobashite


Bridge 1: it lasts 4 bars


Verse 2:
F                                         F#    Gm
uruwashi no yawaraka na hada, imada te wa todokazu
                                         C   F
me o tojireba fukuramu IMEEJI, miwaku no kajitsu


Pre-chorus:
A          D          Dm   Gm
THAT'S SO WONDERFUL!   ikiterunda!
C#                         C
yamerarenai, sono saki o mitai


Chorus 2:
      F                     Gm
dotou no hibi wa tsuzuku, doko made mo
        C                 F
tengoku to jigoku, yukitsumodoritsu
Dm           Gm         G              C
nando demo yomigaeru,   hana o sakaseyou
        F                Gm
hashire hashire, ai o te nisuru made
        C               F
sore de kurushimunara nozomu tokoro
Dm                  Gm            C      F
shukufuku no toki ga kuru, te o nobashite


Bridge 2: it lasts 8 bars


Verse 3:
      F                  Gm
tohou ni kureta kinou ni sayonara
       C                  F
futsufutsu to wakiagaru kono kimochi
Dm               Gm     G              C
nando demo yomigaeru,   hana o sakaseyou
     F                Gm
omoi dewa itsumo amai nige basho
       C                  F
dakedo tachi kire, asu o ikiru tame
Dm                  Gm
shukufuku no toki wa kuru
       C    F
te o nobashite
Gm     C    F
te o nobashite
Gm     C  F
ryoute agete


Outro:
   F                 Gm                Bb
E|-5-6-5-------5-6-|-5---------------|-5-6-5-------5-6-|-5---------------|
B|-------6---------|---6-------------|-------6---------|---6-------------|
G|---------5:------|-----5:----------|---------5:------|-----5:----------|
D|-----------------|-----------------|-----------------|-----------------| (x2)
A|-----------------|-----------------|-----------------|-----------------|
E|-----------------|-----------------|-----------------|-----------------|
   1 + 2 + 3 + 4 +   1 + 2 + 3 + 4 +   1 + 2 + 3 + 4 +   1 + 2 + 3 + 4 +
comments powered by Disqus
Наверх