Аккорды Песни из телепередач - В мире животных (из телепередачи "В мире животных")

Добавлено: @vitos
Дата добавления: 01 Ноября 2014г.
Рейтинг:
0.0
Просмотров: 692
Транспонировать - +
E -----0----------0--|-0------1-----|-------|-0----------|------|
B -------3--1--3-------|--1-----1---|-------|----1-------|--1---|
G -------------------|----2---------|--0----|-------0----|----0-|
D ----------2--------|-0---------3--|-----0-|----------2-|------|
A ---0------------------|-------|-3----------|------|
E ---------------------|--------3---|--------|------|


E -----------------------0------0-|---------0-------|
B ----1-0-----|--0--1--1-----3-----|--3-------0-------0---|------1-----1----|
G ---------2--2--------|-----2--2------1------|----2----------2-|
D ------------|--------0--------3-------------|--2--------------|
A --0------3----------------------------|
E ---------------------|--------0-------------------|


E -----0----------0--|-0------1----|-----1--3-------|--0----------------|----
B -------3--1--3-------|--2--------3----|-----1-------1-----|----
G -------------------|----2-----------0-|--------0-------0--|----
D ----------2--------|-0---------3------2-------|----
A ---0----------------------|--3----------------|----
E ---------------------|--------3---------------|----


E ---------------------|------0-----4------5--|
B ----1-0-----|--0--1--1-----3-----|----3---0------0-3----|
G ---------2--2--------|--2-------2-----------|
D ------------|--------0--------3-------------|
A --0------3-------------------0--|
E ---------------------|------0---------------|
Наверх