Аккорды Песни из телепередач - Sesame Street (из телепередачи "Sesame Street")

Добавлено: @vitos
Дата добавления: 07 Июля 2016г.
Рейтинг:
0.0
Просмотров: 476
Транспонировать - +
Dropped D Tuning

e---------------------------------------------------
B---------------------------------------------------
G---------------------------------------------------
D-0-0--2-2--4-4--2-4-2------------------------------
A-0-0--2-2--4-4--2-4-2------------------------------
D-0-0--2-2--4-4--2-4-2------------------------------
  Intro, few times

e---------------------------------------------------
B---------------------------------------------------
G---------------------------------------------------
D-10--7--3---3-3-5-7----10--7--3---3-3-5-7-9-10-12--
A-10--7--3---3-3-5-7----10--7--3---3-3-5-7-9-10-12--
D-10--7--3---3-3-5-7----10--7--3---3-3-5-7-9-10-12--


e---------------------------------------------------
B---------------------------------------------------
G---------------------------------------------------
D-10-12-13-12-10-7-5--5-7-8-7--5-10-10-10-----------
A-10-12-13-12-10-7-5--5-7-8-7--5-10-10-10-----------
D-10-12-13-12-10-7-5--5-7-8-7--5-10-10-10-----------
Наверх