Аккорды Песни из телепередач - New Age Outlaws (из телепередачи "WWE SmackDown!")

Добавлено: @vitos
Дата добавления: 11 Июля 2016г.
Рейтинг:
0.0
Просмотров: 393
Транспонировать - +
Intro no Bass 


After the drum solo...
 
G---------------------------------------------------------- 
D---------------------------------------------------------- 
A---------------------------------------------------------- 
E--0-0-2-0-----0-0-2-0--|--0-0-2-0--0-0-2-0----------------
 
          
Repeat the part after the bar afew times then... 
 
G-------2-2-2------------------------------- 
D-----------------3-3-3--------------------- 
A-3-3-3------------------------------------- 
E-------------------------------------------
Наверх