Аккорды Песни из видеоигр - Super Mario Bros. (из видеоигры "Super Mario Bros.")

Добавлено: @romashka
Дата добавления: 05 Апреля 2019г.
Рейтинг:
0.0
Просмотров: 69
Транспонировать - +
Main Theme:
e|--0-0-0---0-3----|
B|--------1--------|
G|---------------0-|
D|-----------------|
A|-----------------|
E|-----------------|

e|-----------------------0-3-5--1-3-0-------|
B|--1----------0----------------------1-3-0-|
G|-----0-----2---3-2---0--------------------|
D|--------2---------------------------------| x2
A|------------------------------------------|
E|------------------------------------------|

e|--3-2-1---0---------------3-2-1---0--8-8-8---3-2-1---0----------------------|
B|--------4-------1---1-3---------4------------------4-------1---1-3----4-3-1-|
G|------------1-2---2------------------------------------1-2---2--------------|
D|----------------------------------------------------------------------------| x2
A|----------------------------------------------------------------------------|
E|----------------------------------------------------------------------------|

e|------------0--------------------0----------------0-------|
B|--1-1-1-1-3---1--------1-1-1-1-3--------1-1-1-1-3---1-----|
G|----------------2-0-----------------------------------2-0-|
D|----------------------------------------------------------|
A|----------------------------------------------------------|
E|----------------------------------------------------------|

e|--0-0-0---0-3---|
B|--------1-------|
G|--------------0-|
D|----------------|
A|----------------|
E|----------------|

e|-----------------------0-3-5--1-3-0-------|
B|--1----------0----------------------1-3-0-|
G|-----0-----2---3-2---0--------------------|
D|--------2---------------------------------| x2
A|------------------------------------------|
E|------------------------------------------|

e|-0-----------1-1-------5-5-5-3-1-0----------0-----------1-1-------1-1-1-0-----|
B|---1-----------------0-------------1----------1-----------------0---------3-1-|
G|-----0--1--2-----2--------------------2-0-------0--1--2-----2-----------------| x2
D|------------------------------------------------------------------------------|
A|------------------------------------------------------------------------------|
E|------------------------------------------------------------------------------|

e|------------0--------------------0--------------0-------|
B|--1-1-1-1-3---1--------1-1-1-1-3------1-1-1-1-3---1-----|
G|----------------2-0---------------------------------2-0-|
D|--------------------------------------------------------|
A|--------------------------------------------------------|
E|--------------------------------------------------------|

e|--0-0-0---0-3----|
B|--------1--------|
G|---------------0-|
D|-----------------|
A|-----------------|
E|-----------------|

e|--0-----------1-1-------5-5-5-3-1-0----------0-----------1-1-------1-1-1-0-----|
B|----1-----------------0-------------1----------1-----------------0---------3-1-|
G|------0--1--2-----2--------------------2-0-------0--1--2-----2-----------------|
D|-------------------------------------------------------------------------------|
A|-------------------------------------------------------------------------------|
E|-------------------------------------------------------------------------------|

e|-----------------------0-3-5--1-3-0-------|
B|--1----------0----------------------1-3-0-|
G|-----0-----2---3-2---0--------------------|
D|--------2---------------------------------| x2
A|------------------------------------------|
E|------------------------------------------|

e|--3-2-1---0---------------3-2-1---0--8-8-8----3-2-1---0---------------------|
B|--------4-------1---1-3---------4-------------------4-------1---1-3---4-3-1-|
G|------------1-2---2-------------------------------------1-2---2-------------|
D|----------------------------------------------------------------------------| x2
A|----------------------------------------------------------------------------|
E|----------------------------------------------------------------------------|

e|------------0--------------------0-|
B|--1-1-1-1-3---1--------1-1-1-1-3---|
G|----------------2-0----------------|
D|-----------------------------------|
A|-----------------------------------|
E|-----------------------------------|
comments powered by Disqus
Наверх