Аккорды Pharaoh - Во имя тьмы

Добавлено: @romashka
Дата добавления: 11 Мая 2021г.
Рейтинг:
0.0
Просмотров: 179
Транспонировать - +
|-------------------|-------------------|
|----0---3/5 -0----|-------------------|
|-------------------|-----2---2/4 -----|
|------4------------|---4---4-------2---|
|--2-------------4--|-5---------------5-|
|-------------------|-------------------|
             
|-------------------|-------------------|
|----------0---3----|--------5/7 -3/2--|
|------0---------0--|----2---2/4 ------|
|----0---0---0------|------2------------|
|-------------------|-0-----------------|
|--3----------------|-------------------|

Куплет 1
Dm
Некуда бежать
F#
Незачем скрываться
B                C#
Всё закончится и ты научишься смеяться
Dm
Шрам за шрамом
F#
Шрам за шрамом
B
На одном из них
C#
Ты устаёшь бояться (Того что)

Припев
Dm
Пусть всё рушится вокруг
F#
С наступлением темноты (Темноты)
B
Вода смоет всю кровь с рук
C#
С наступлением темноты (Темноты)

Рефрен
Темноты
Темноты
Темноты

Куплет 2
Я помню в детстве темноту, она звала меня
Я будто бы нарочно в свою душу плюнул пламенем
И это не исправить
Но это не исправить, а нахуй она мне нужна? Всё это бред
Ты доверяешь страхам, но не доверяешь своей жизни
Она хочет выпить из меня остаток, чтобы прыгнуть выше
Мне надо сжечь мост
Синистер в моей голове
Красную, синюю? Я беру две

Припев
Пусть всё рушится вокруг
С наступлением темноты (Как последний вдох и выдох солнца)
Вода смоет всю кровь с рук
С наступлением темноты (Темноты)

Рефрен
Темноты
Темноты
Темноты

Мелодия каподастр на 4 ладу, аккорды каподастр на 1 ладу всю песню последовательность аккордов Dm F# B C#, бой восьмёрка.
Наверх