Аккорды Pharaoh - Во имя тьмы

Добавлено: @romashka
Дата добавления: 20 Мая 2021г.
Рейтинг:
0.0
Просмотров: 93
Транспонировать - +
|-------------------|-------------------|
|----0---3/5/3-0----|-------------------|
|-------------------|-----2---2/4/2-----|
|------4------------|---4---4-------2---|
|--2-------------4--|-5---------------5-|
|-------------------|-------------------|
             
|-------------------|-------------------|
|----------0---3----|--------5/7/5-3/2--|
|------0---------0--|----2---2/4/2------|
|----0---0---0------|------2------------|
|-------------------|-0-----------------|
|--3----------------|-------------------|

Куплет 1
Bm
Некуда бежать
D
Незачем скрываться
G                A
Всё закончится и ты научишься смеяться
Bm
Шрам за шрамом
D
Шрам за шрамом
G
На одном из них
A
Ты устаёшь бояться (Того что)

Припев
Bm
Пусть всё рушится вокруг
D
С наступлением темноты (Темноты)
G
Вода смоет всю кровь с рук
A
С наступлением темноты (Темноты)

Рефрен
Bm
Темноты
D
Темноты
G   
Темноты
A
Темноты

Куплет 2
Bm
Я помню в детстве темноту, она звала меня
D
Я будто бы нарочно в свою душу плюнул пламенем
G                                       A
И это не исправить Но это не исправить, а нахуй она мне нужна? Всё это бред
Bm
Ты доверяешь страхам, но не доверяешь своей жизни
D
Она хочет выпить из меня остаток, чтобы прыгнуть выше
G
Мне надо сжечь мост
A
Синистер в моей голове Красную, синюю? Я беру две

Припев
Bm
Пусть всё рушится вокруг
D
С наступлением темноты (Как последний вдох и выдох солнца)
G     
Вода смоет всю кровь с рук
A
С наступлением темноты (Темноты)

Рефрен
Bm
Темноты
D
Темноты
G   
Темноты
A
Темноты

Capo 4, бой шестёрка.
Наверх