Аккорды Pharaoh - Позволив молодости жить

Добавлено: @romashka
Дата добавления: 26 Января 2017г.
Рейтинг:
0.0
Просмотров: 353
Транспонировать - +
Куплет:
Cm   
где твои деньги блядь
с вас тварей нехер взять
Gm
я умру опять
Gm7+5
делай глубокий вдох
капали слезы вдов
гнили розы вновь

Cm
этот я тот белый ублюдок труп
это бритва сука блестит во рту
Gm
это нитро чтобы грести ко дну
G
этих эмси позже навестим в аду
Cm
я умру за свою crew
клубы никотина напомнят петлю
Gm                                     G
тысяча трупов одно авеню и ты просто мудак я тебя не виню
Cm
вены встревожены
где же ты боже мой 
                                   Gm
сука в крови ее долбят на тошибе может 
во мне слишком мало хорошего и
       G
мы не вы
скажи тогда кто же мы, сука

Перебор:
-------------------------------------------
-------------------------------------------
--2-----2--------3-------0---0--2----------
------------3--------3------------------3--
5----5--------5-------5----5-------5---5---
-------------------------------------------

------------------------------------------
------------------------------------------
--2-----2--------3-------0---0--2---------
------------3--------3------------------3-
5----5--------5-------5----5-------5---5--
------------------------------------------

------------------------------------------
------------------------------------------
--2-----2--------3-------0---0--2---------
------------3--------3------------------3-
1----1--------1-------1----1-------1---1--
------------------------------------------

------------------------------------------
---------------------------3---1----------
--2----2---------2------------------------
--------- 3--------3----------------------
0----0-------0-------0--------------------
------------------------------------------
 
Припев:
я стал обескровлен
асфальт моя кровля
и свет терял облик
те крыши нас помнят
Наверх