Аккорды «Phaze»

Популярные аккорды Phaze:
алфавиту | просмотрам | случайно
  • Mian:
    g:---------------------------------|
    d:---------------------------------|
    a:------7-7--7-7-------------------|
    e:7-7-7----------5-5--5-5--3-3--3-3|
    b:---------------------------------|
    
    Riff 2:
    g:------------------------------------------------|
    d:--9h11p9----------9h11p9-12----12----12----12---|
    a:9--------9-7-3--9-----------11----11----11----11|
    e:------------------------------------------------|
    b:------------------------------------------------|
    
    Bass…
  • Intro:
    g:-----|
    d:15|
    a:-----|
    e:-----|
    
    Main:
    g:---------------------------------|
    d:2-----2-----2---2-----2-----2h3p2|
    a:--2-2---2-2---2---2-2---2-2------|
    e:---------------------------------|
    
    just repeat in the rythm…
  • Main:
    g:-------------------------------|
    d:-------------------------------|
    a:-------------------------------|
    e:7-0-0-0-7-0-0-0-7-0-7-0-7-0-0-0|
    b:-------------------------------|
    
    2nd:
    g:-----------------------------|
    d:-----------------------------|
    a:-----------------------------|
    e:5-0-0-0-3-3-5---5-0-0-0-3-3-6|
    b:-----------------------------|
    
    3rd:
    g:-----------------------------|
    d:--------7-7-9----------7-7-10|
    a:--------5-5-7----------5-5-8-|
    e:5-0-0-0--------5-0-0-0-------|
    b:-----------------------------|
    
    Bridge:Slap
    g:-----------|
    d:x2x2x33x3-3|
    a:-----------|
    e:-----------|
    b:-----------|
    
    Bridge:2
    g:-----------|
    d:x2x2x33x3-3|
    a:x2x2x33x3-3|
    e:-----------|
    b:-----------|…
  • Main:
    g:-------------------|
    d:-------------------|
    a:-------------------|
    e:----3--------------|
    b:3-3---3-3--3-3--3-3|
    
    PreChorus:
    g:-------------------|
    d:-------------------|
    a:----3--------------|
    e:3-3---3-3--3-3--3-3|
    b:-------------------|
    
    Riff…
  • Main:Slap:
    G:--------------------|
    D:--------3-3--0-0-3-3|
    A:--------------------|
    E:2-2-2-2-------------|X6
    
    2nd: Finger
    G:-------------------------|
    D:-------------------------|
    A:--------0-2-0-2-0-2-0-2--|
    E:4-4-4-4-----------------2|X6
    
    Start…
  • Main:
    g:-----------------------------|
    d:-----------------------------|
    a:-----------------------------|
    e:-----------------------------|
    b:1-1-1h3-3-3h5-5-5-h7-7-7-5-5-|X10
    
    2nd:
    g:-----------------------------------|
    d:-----------------------------------|
    a:-----------------------------------|
    e:-----------------------------------|
    b:7-7--7p5-5-5--5p3-3--3p1-1-1--1h3-3|X10
    
    Slap…
  • intro muffeld
    g:-----------------------|
    d:-----------------------|
    a:------33--3-------11--1|
    e:3--33-------1--11------|x2
    
    Main riff with out guitar
    g:----------------------|
    d:----------------------|
    a:------33--3-------11-1|(22):ever…
  • Main
    G:--------------------------|
    D:--------------------------|
    A:--------------------------|
    E:0-8-9--0-8-9--0-7-8--0-7-8|
    B:--------------------------|X10
    
    FILL:
    G:9|
    D:7|
    A:----|
    E:----|
    B:----|X1
    
    CHORUS:
    G:-----------------------------------|
    D:-----------------------------------|
    A:-----------------------------------|
    E:-----------------------------------|
    B:XX-3-X-5-XX-3-X-5-XX-3-X-5-XX-3-X-5|X4
    
    CHORUS…
  • Main Riff:
    g:----------------------------------------|
    d:---------9-10-10-10-10---------7-8-8-8-8|
    a:9-9-9-10---------------7-7-7-8----------|
    e:----------------------------------------|
    b:----------------------------------------|
    
    2nd…
  • Intro Palm muted:
    g:----------------------------------------|
    d:---------9-10-10-10-10---------7-8-8-8-8|
    a:9-9-9-10---------------7-7-7-8----------|
    e:----------------------------------------|
    b:----------------------------------------|X2
    
    Main…
Наверх