Аккорды Пик Клаксон - Пей, дружок, пей

Добавлено: @romashka
Дата добавления: 27 Марта 2022г.
Рейтинг:
0.0
Просмотров: 51
Транспонировать - +
[Аккорды (они обычные, просто A#m и C# на более удобных ладах, 
 а F#m/G и G#m/A немного не те что amdm предлагает)]
  F#    D#m    A#m     C#   F#m/G  G#m/A
--2--  --6--  --6--  --9--  --2--  --4--
--2--  --7--  --6--  --9--  --2--  --4--
--3--  --8--  --6--  --10-  --2--  --4--
--4--  --8--  --8--  --11-  --5--  --7--
--4--  --6--  --8--  --11-  --4--  --6--
--2--  --6--  --6--  --9--  --3--  --5--

[Вступление]
(L - нотная связь)
                             F#m/G             G#m/A
                             ^     v           ^
e |--------------------------2-----2-----------4L========|
b |--------------------------2-----2-----------4L========|
g |--------------------------2-----2-----------4L========|
d |--------------------------5-----5-----------7L========|
a |--------------------------4-----4-----------6L========|
e |--2-----------------------3-----3-----------5L========|

==4-------------------------|----------------------------|
==4--4-----------4----------|----------------------------|
==4-----4-------------------|----------------------------|
==7--------7--------7-------|-----------------------4----|
==6-----------6--------6----|-----------------4--6-------|
==5-------------------------|--5-------------------------|

F#
--------2--------2---------|||
--------2--------2---------|||
--------3--------3--------о|||
--------------------------о|||
---------------------------|||
--2--------x--2-----x--2---|||

[Песня]

F#
Сколько людей побывало до нас
F#
Там где с тобой пьём вино мы сейчас...
F#
Пъёшь ты как будто кому-то назло,
F#
Но не одному тебе не повезло.

- D#m D#m - A#m - A#m - D#m D#m - C# - C#
                            Пей, дружок, пей.

- D#m D#m - A#m - A#m - D#m D#m - A#m

F#
Мы не рождены для великих дел.
Переделать весь мир не один ты хотел.
Лезли наверх, но застряли здесь.
Обдумай всё, взвесь и дальше не лезь.

D#m A#m D#m C#
          Пей, дружок, пей.

D#m A#m D#m A#m

F#
Пей пока ещё есть на что пить.
Не мы виноваты что стали жить.
Не мы виноваты - не с нас ответ.
Здесь нам удобно. Мест больше нет.

D#m A#m D#m C#
          Пей, дружок, пей.

D#m A#m D#m A#m

F#
Вино ещё есть. Так чего же мы ждём?
Нас выставят скоро. Куда мы пойдём?
За дверью скрипучей лишь холод и мгла.
Вино обжигает. Сгореть бы до тла...

D#m A#m D#m C#
          Пей, дружок, пей.

D#m A#m D#m

D#m           F#
За хороших людей
              D#m
Пей, дружок, пей.
              F#
За старых друзей
              D#m
Пей, дружок, пей.
            F#
За весёлую жизнь
              D#m
Пей, дружок, пей.
            F#
За лёгкую смерть
              D#m
Пей, дружок, пей.

F#
Наверх