Аккорды Пик Клаксон - Серые мыши

Добавлено: @romashka
Дата добавления: 29 Марта 2022г.
Рейтинг:
0.0
Просмотров: 33
Транспонировать - +
[Вступление]:

e |--6-----4-------|--2-----0-------|
b |----------------|----------------|
g |----------------|----------------|
d |--4-----2-------|--1-------------|
a |----------------|--------4-------|
e |----------------|----------------|

   B                                 x2
|-----------------------------------||
|----------4----4----------4----4---||
|----------4----4----------4----4---|| 
|----------4----4----------4----4---||
|--2--------------------------------||
|------------------2----------------||

[Песня]

 B                           F#
Серые мыши, надувая щёки, пищат,
      G#m                           D#m
Поднимая мохнатые лапки, громко кричат,
       C#m7                                D#m
Превращаясь в холодные трупы, спокойно молчат -
       C#m7                       D#m
Корку чёрствого хлеба пусть погрызут...

   B                                 F#
Я чей-то обломок поднял по дороге к вам,
     G#m                         D#m
По его порученью я вымыл его скелет,
      C#m7                          D#m
Он оставил на память мне свой пистолет,
       C#m7                       D#m
А я спрятал его в водосточной трубе.

 B                           F#
Серые мыши, надувая щёки, пищат,
      G#m                           D#m
Поднимая мохнатые лапки, громко кричат... 
Наверх