Аккорды Пилот - Рыба, крот и свинья

Добавлено: @romashka
Дата добавления: 25 Августа 2022г.
Рейтинг:
0.0
Просмотров: 18
Транспонировать - +
Вступление : 
B5 E5 
B5 E5
A5 B5

E)2--2-2-0-2--2-2-0-2--2-2-0-2-3-2-0 } 5x

A)---------------------------------2
E)2--2-2-0-2--2-2-0-2--2-2-0-2-3-2-0

            E)2--2-2-0-2--2-2-0-2--2-2-0-2-3-2-0
Слушать сюда!
E)2-2-0-2--2-2-0-2-3-2-0  E)2--2-2-0-2--2-2-0-2--2-2-0-2-3-2-0
Должно ли случиться так? Накормишь ли ты собой
B5        E5        
A)-------------1~2~1
E)2--2-2-0-2--3--------2-2-0-2-3-2-0
Обжорливых лоснящихся собак?
E)2--2-2-0-2--2-2-0-2--2-2-0-2-3-2-0 E)2--2-2-0-2--2-2-0-2--2-2-0-2-3-2-0
Жалеть порезанных рук? Скормить свое хочу
B5    D5    E5
A)-------------1~2~1
E)2--2-2-0-2--3--------2-2-0-2-3-2-0
На площадях в руках своих подруг! Постоянно
D)4--------4--------4--------2--2
A)2--2-2-0-2--2-2-0-2--2-2-0-0--0
Находится в состоянии прихождения в себя!

F#5 B5  F#5 E5 B5
Рыба, крот и свинья!  
F#5 B5  F#5 E5 Bb5
Рыба, крот и свинья!  
F#5 B5  F#5 A5 Db5
Рыба, крот и свинья!  
D5        B5
Наделены властью судить тебя!
F#5 B5  F#5 E5 B5
Рыба, крот и свинья!  
F#5 B5  F#5 E5 Bb5
Рыба, крот и свинья!  
F#5 B5  F#5 A5 Db5
Рыба, крот и свинья!  
D5        B5
Три закона гребут все под себя!

[Проигрыш]:
E)2--2-2-0-2--2-2-0-2--2-2-0-2-3-2-0 } 5x

A)---------------------------------2
E)2--2-2-0-2--2-2-0-2--2-2-0-2-3-2-0

            E)2--2-2-0-2--2-2-0-2--2-2-0-2-3-2-0
Слушать сюда!
E)2-2-0-2--2-2-0-2-3-2-0  E)2--2-2-0-2--2-2-0-2--2-2-0-2-3-2-0
Сидеть! Молчать в углу! Пока тебе дают
B5        E5        
A)-------------1~2~1
E)2--2-2-0-2--3--------2-2-0-2-3-2-0
Картонные твои права и жратву!
E)2--2-2-0-2--2-2-0-2--2-2-0-2-3-2-0 E)2--2-2-0-2--2-2-0-2--2-2-0-2-3-2-0
Сверкать, как звезда, себе дороже для
B5    D5    E5
A)-------------1~2~1
E)2--2-2-0-2--3--------2-2-0-2-3-2-0
Здоровья, воли, и свободы для! И сеять Свет
D)4--------4--------4--------2--2
A)2--2-2-0-2--2-2-0-2--2-2-0-0--0
Там, где три брата, сговорившись, поиметь сошлись тебя!

F#5 B5  F#5 E5 B5
Рыба, крот и свинья!  
F#5 B5  F#5 E5 Bb5
Рыба, крот и свинья!  
F#5 B5  F#5 A5 Db5
Рыба, крот и свинья!  
D5        B5
Наделены властью судить тебя!
F#5 B5  F#5 E5 B5
Рыба, крот и свинья!  
F#5 B5  F#5 E5 Bb5
Рыба, крот и свинья!  
F#5 B5  F#5 A5 Db5
Рыба, крот и свинья!  
D5        B5
Страх, ложь и воровство - вот три зверя, 
Жрущие тебя!

[Проигрыш]:
F#5 G5 G5 G#5 G#5 A5 A5 A#5    B5 C5 C#5 } 4x

E)2-2-2-0--0-2-2--2-0--0-2-2--2-0--0-2-2--2-3 } 4x

B5 E5

E)2--0-2-2--2-0-2-2--2-0-2-2--3 } 4x

B5 E5  F#5 B5
A)2-2-1
E)—----2

B5 E5  F#5 B5
A)2-2-1
E)—----2

G5 A5

            E)2--2-2-0-2--2-2-0-2--2-2-0-2-3-2-0
Играй, гитара, 
E)2-2-0-2--2-2-0-2-3-2-0  E)2--2-2-0-2--2-2-0-2--2-2-0-2-3-2-0
Пой! Звени, басовая!
B5        E5        
A)-------------1~2~1
E)2--2-2-0-2--3--------2-2-0-2-3-2-0
Крутись неделя беспонтовая!
E)2--2-2-0-2--2-2-0-2--2-2-0-2-3-2-0 E)2--2-2-0-2--2-2-0-2--2-2-0-2-3-2-0
Нахрапом сломать ряды, в слюнявые жирные рты
B5    D5    E5
A)-------------1~2~1
E)2--2-2-0-2--3--------2-2-0-2-3-2-0
Прощанье бросить и плюнуть от души так непросто,
D)4--------4--------4--------2--2
A)2--2-2-0-2--2-2-0-2--2-2-0-0--0
Где с кнутами и конфетой трое стерегут тебя!


F#5 B5  F#5 E5 B5
Рыба, крот и свинья!  
F#5 B5  F#5 E5 Bb5
Рыба, крот и свинья!  
F#5 B5  F#5 A5 Db5
Рыба, крот и свинья!  
D5        B5
Наделены властью судить тебя!
F#5 B5  F#5 E5 B5
Рыба, крот и свинья!  
F#5 B5  F#5 E5 Bb5
Рыба, крот и свинья!  
F#5 B5  F#5 A5 Db5
Рыба, крот и свинья!  
D5        B5
Три закона гребут все под себя!

[Кода]:
E)2-2-2-0--0-2-2--2-0--0-2-2--2-0--0-2-2--2
G5        F#5 E5 F#5 

Тональность Ми Минор (Em).
Строй стандартный (EADGBe).
Рифы играются на электрогитаре.
Наверх