Аккорды Pink Floyd - Hey you

Добавлено: @romashka
Дата добавления: 05 Сентября 2020г.
Рейтинг:
0.0
Просмотров: 139
Транспонировать - +
E|-----------------------------------------------------------------------------------------------------------------------------------------------------------------------------------------------
B|-------------------------------------------------------------------------------------------------------------------------5--7b8--7v-----5--7b8--7v-----5--7b8--7v-----5--7/10--10/12-----------
G|-------------------------------------------------------------2--4b5--4v-----2--4b5--4v-----2--4b5--4v-----2--4b5--4v---------------------------------------------------------------------------
D|--2--4b5--4v-----2--4b5--4v-----2--4b5--4v-----2--4b5--4v--------------------------------------------------------------------------------------------------------------------------------------
A|-----------------------------------------------------------------------------------------------------------------------------------------------------------------------------------------------
E|-----------------------------------------------------------------------------------------------------------------------------------------------------------------------------------------------

E|---------------------------------------------------------------------------------------12----------------------------------------------------12------------------------------------------------
B|--10--12b13--12v-----10--12b13--12v-----10--12b13--12v-----10--12--12b13--12/15--15b17r----15b17r---15b17--12--15---------12--15---------12------15-12-15b17-----------------------------------
G|-------------------------------------------------------------------------------------------------------------------14b16----------14b16--------------------------14b16--14-12-14v--------------
D|-----------------------------------------------------------------------------------------------------------------------------------------------------------------------------------------------
A|-----------------------------------------------------------------------------------------------------------------------------------------------------------------------------------------------
E|-----------------------------------------------------------------------------------------------------------------------------------------------------------------------------------------------

E|----------------------------12------------------------------------------------------15--12------15--12------15--12--15b17-------------------------------------------12-------------------------
B|---------12--15---------12------12--15--12--------------------------------------------------12----------12-----------------15b17--12--15---------12--15---------12------12--15--12-------------
G|--14b16----------14b16----------------------14--14b16--12------12--12b14-----14b16--------------------------------------------------------14b16----------14b16----------------------14--14b16--
D|-----------------------------------------------------------14----------------------------------------------------------------------------------------------------------------------------------
A|-----------------------------------------------------------------------------------------------------------------------------------------------------------------------------------------------
E|-----------------------------------------------------------------------------------------------------------------------------------------------------------------------------------------------

E|------------------------17b19--17v--15--17--17p15v---------------------------------------12----------------------------------------------------------------------------------------------------
B|-------------------------------------------------------15b17--12--15---------12--15--12------12--15--12----------------------------------------------------------------------------------------
G|--12------12--12b14---------------------------------------------------14b16------------------------------14b16--14--12------14--12------12b14--------------------------------------------------
D|------14----------------------------------------------------------------------------------------------------------------14----------14---------14--12--------------------2---------------------
A|-------------------------------------------------------------------------------------------------------------------------------------------------------12--10------------2---------------------
E|---------------------------------------------------------------------------------------------------------------------------------------------------------------12--12/3--0---------------------
Наверх