Аккорды Plan B - Charmaine

Добавлено: @romashka
Дата добавления: 04 Августа 2018г.
Рейтинг:
0.0
Просмотров: 13
Транспонировать - +
capo 1

e|------------------------------------------------------------------------------|
B|-----1-0----------------------------------------------------------------------|
G|---------------0----------for a few times-------------------------------------|
D|---2---2-----0---2------------------------------------------------------------|
A|-0----------------------------------------------------------------------------|
E|----------0-------------------------------------------------------------------|

e|------------------------------------------6-8-9-8-6------------------------|
B|------------before the chorus ----------------------9-6--------------------|
G|---------------------------------------------------------------------------|
D|---------------------------------------------------------------------------|
A|---------------------------------------------------------------------------|
E|---------------------------------------------------------------------------|
comments powered by Disqus
Наверх