Аккорды Plan B - Kidz

Добавлено: @romashka
Дата добавления: 04 Августа 2018г.
Рейтинг:
0.0
Просмотров: 16
Транспонировать - +
Tuning: Standard


the main riff
e|---------------------------------|
B|---------------------------------|
G|---------------------------------|
D|------3-----------3--------------|
A|----------5----------------------| x 2
E|--5----------5-------------------|

then

e|---------------------------------|
B|---------------------------------|
G|--------2----------2-------------|
D|------------4--------------------|
A|----4----------4-----------------| x 2
E|---------------------------------|

the chorus bit is
e|---------------------------------------|
B|---------------------------------------|
G|---------------------------------------|
D|--------3---------3----------3---------|
A|------------5---------5----------------| x 2
E|----5----------5---------5-------------|

e|-------------------------------------------------|
B|-------------------------------------------------|
G|------2----------2----------2--------------------|
D|----------4----------4---------------------------|
A|---4---------4----------4------------------------| x 2
E|-------------------------------------------------|

im pretty sure the chords at the end are:
e|----------------------------------|
B|----------------------------------|
G|------------2---------------------|
D|---3-------4----------------------|
A|---5-------4----------------------|
E|---5------------------------------|


| /  slide up
| \  slide down
| h  hammer-on
| p  pull-off
| ~  vibrato
| +  harmonic
| x  Mute note
===============================================================================
comments powered by Disqus
Наверх