Аккорды Plan B - Mama (Loves A Crackhead)

Добавлено: @romashka
Дата добавления: 04 Августа 2018г.
Рейтинг:
0.0
Просмотров: 35
Транспонировать - +
Tunning - Standard


riff 1

     Cm      Gm      Dm      C#m     Cm

E|---x-------3-------x-------x-------x---|
A|---3-------5-------5-------4-------3---|
D|---5-------5-------7-------6-------5---|
g|---5-------3-------7-------6-------5---|
b|---4-------3-------6-------5-------4---|
e|---3-------3-------5-------4-------3---|


riff 2

     Cm      Gm      Dm      Cm

E|---x-------3-------x-------x---|
A|---3-------5-------5-------3---|
D|---5-------5-------7-------5---|
g|---5-------3-------7-------5---|
b|---4-------3-------6-------4---|
e|---3-------3-------5-------3---|

Intro

riff 1

First verse

riff 2
riff 1
riff 2
riff 1

Chorus

riff 2
riff 2
riff 1

Second verse

riff 2
riff 1
riff 2
riff 1

Chorus

riff 2
riff 2
riff 1

Third Verse

riff 2
riff 1
riff 2
riff 1

Fourth Verse

riff 1

Chorus

riff 2
riff 2
riff 2
riff 2


:First verse:

comments powered by Disqus
Наверх