Аккорды Plan B - Missing Links

Добавлено: @romashka
Дата добавления: 04 Августа 2018г.
Рейтинг:
0.0
Просмотров: 32
Транспонировать - +
this is played on the intro
e--------------------------|
b-----0-------6-----0----6-|
g----0-0-----6-----0-0---6-|
d---2---2---8-----2---2--8-|
a--2-----2-8-----2-----2-8-|
E-0-------6-----0--------6-|

this is played over or strum the chords
e---------------|
b-----0-------6-|
g----0-0-----6--|
d---2---2---8---|
a--2-----2-8----|
E-0-------6-----|

and i think the chorus alternates from each chord at double the speed
comments powered by Disqus
Наверх