Аккорды Plan B - She Said

Добавлено: @romashka
Дата добавления: 04 Августа 2018г.
Рейтинг:
0.0
Просмотров: 37
Транспонировать - +
She Said bass tab

/ = Slide

the whole song is pritty much just ...
G------------------------------------------------------------------------|
D------------------------------------------------------------------------|
A------------------------------------------------------------------------|
E-11-11--6/11-11--6/11-11--6/11-11--11/6-6--1/6-6--1/6-6--1/6-6--6/11-11-|

11 means eleven not 1.
so the slides are do tend to take the skin off your fingers, i aften play it with a bit 
celotape around my fretting fingers.

half way through the verses it goes ...
G--------------------------------------------|
D--------------------------------------------|
A--------6-8-9--9-9--9--9-9------------6-8-9-|  x a few
E-1/6-6---------------------6--6-6--6--------|  etc. ...

the only differant bit now is the raping part which goes...

G--------------------------------------------|
D----1313---13  x a few then---88---8--------|
A--------------------------------------------|
E-11-----11------------------6----6----------|

x a few then

G--------------------------------------------------------|
D----------------------------------------------888888888-|
A-6-8-9--9-9--9--9-9------------6-8-9--------------------|   then
E--------------------6--6-6--6---------------------------|

loads of repeats then end on
G--
D--
A--
E-11 
comments powered by Disqus
Наверх