Аккорды Plan B - Sick 2 Def

Добавлено: @romashka
Дата добавления: 04 Августа 2018г.
Рейтинг:
0.0
Просмотров: 9
Транспонировать - +
Tuning: EADGBe

e|---------------------------------------------------------------------------|
B|-1-----1--1-----1-----1--1--1-----1--1-----1-----1--1----------------------|
G|-1-----1--1-----1-----1--1--1-----1--1-----1-----1--1----------------------|
D|-3-----3--3-----3-----3--3--3-----3--3-----3-----3--3----------------------|
A|-3-----3--3-----3-----3--3--3-----3--3-----3-----3--3----------------------|
E|---------------------------------------------------------------------------|

e|---------------------------------------------------------------------------|
B|-1-----1--1-----1-----1--1--1-----1--1-----1-----1--1----------------------|
G|-2-----2--2-----2-----2--2--2-----2--2-----2-----2--2----------------------|
D|-3-----3--3-----3-----3--3--3-----3--3-----3-----3--3----------------------|
A|-3-----3--3-----3-----3--3--3-----3--3-----3-----3--3----------------------|
E|---------------------------------------------------------------------------|
comments powered by Disqus
Наверх