Аккорды Plan B - Stay Too Long

Добавлено: @romashka
Дата добавления: 04 Августа 2018г.
Рейтинг:
0.0
Просмотров: 32
Транспонировать - +
Verse (1)

e----------------|
B-1/3-3--8-6-3-1-|
G-2/4-4--8-7-4-2-|
D-3/5-5--8-8-5-3-|
A-3/5-5--6-8-5-3-|
E----------------|

Chorus (1)

e-1-1-1-1--5-5-5-5--3-3-3-3-3-----3-|
B-1-1-1-1--5-5-5-5--3-3-3-3-3-8-6-3-|
G-2-2-2-2--5-5-5-5--4-4-4-4-4-8-7-4-}- X 2
D-3-3-3-3--7-7-7-7--5-5-5-5-5-8-8-5-|
A-3-3-3-3--7-7-7-7--5-5-5-5-5-6-8-5-|
E-----------------------------------|

Verse (1)

e----------------|
B-1/3-3--8-6-3-1-|
G-2/4-4--8-7-4-2-|
D-3/5-5--8-8-5-3-|
A-3/5-5--6-8-5-3-|
E----------------|

Chorus (2)

e-1-1-1-1--5-5-5-5--3-3-3-3-3-----3-|
B-1-1-1-1--5-5-5-5--3-3-3-3-3-8-6-3-|
G-2-2-2-2--5-5-5-5--4-4-4-4-4-8-7-4-}- X 3
D-3-3-3-3--7-7-7-7--5-5-5-5-5-8-8-5-|
A-3-3-3-3--7-7-7-7--5-5-5-5-5-6-8-5-|
E-----------------------------------|

e-1-1-1-1--5-5-5-5--3-3-3-3-3-3-3-3-|
B-1-1-1-1--5-5-5-5--3-3-3-3-3-3-3-3-|
G-2-2-2-2--5-5-5-5--4-4-4-4-4-4-4-4-|
D-3-3-3-3--7-7-7-7--5-5-5-5-5-5-5-4-|
A-3-3-3-3--7-7-7-7--5-5-5-5-5-5-5-5-|
E-----------------------------------|

Verse (2)

e----------------|
B-1/3-3--6-8-6-3-|
G-2/4-4--7-8-7-4-|
D-3/5-5--8-8-8-5-|
A-3/5-5--8-6-8-5-|
E----------------|

Chorus (1)

Verse (1)

Chorus (2)

Verse (2)
comments powered by Disqus
Наверх