Аккорды Ploho - Строительный кран

Добавлено: @romashka
Дата добавления: 26 Июля 2022г.
Рейтинг:
0.0
Просмотров: 63
Транспонировать - +
[Вступление]:       
1)----1~~~~~~~~~~~---------1~~~~~~~~~~~------------------
2)---3~~~~~~~~~~~---------3~~~~~~~~~~~-------------------
3)--2~~~~~~~~~~~---------2~~~~~~~~~~~------2--1----------
4)-0~~~~~~~~~~~---------0~~~~~~~~~~~-------------3--0----
5)-------------------------------------------------------
6)-------------------------------------------------------
затем:                                                        x2
1)------------------------------------------------------------|
2)--------------------------------------------------------3---|
3)-2--2-1-2--2-1-2--2-1-2-1---1--2--2-1-2--2-1-2--2-1-2-1---1-|
4)--------------------------3---------------------------------|
5)------------------------------------------------------------|
6)------------------------------------------------------------|

Dm
Пролетарии разных стран
Объединяют строительный кран
Истерический смех
От полученных ран
Dm
Храбрый молчит, трусливый помалкивает
Тянутся руки, и ставят палки нам
В спицы колес
Назван мрачный прогноз

F
Калейдоскоп неоправданных рисков
F                              A5-  Asus4
Я теряю друзей, отменяю подписки я

Dm
И не страшны никакие напасти нам
Работаем неделю, и счастливы по пятницам
Однажды все закончится
И мы отправимся к отцам
Dm
Но а пока мы радуемся, бегаем
Провожаем тех, кто уходит первыми
Кто не смог
Досчитать до ста

F
Каждый день от сломленной воли
F                             A5-  Asus4
Я теряю друзей, забываю пароли я

Dm
Что будет дальше — я не знаю
В стране, где каждый включает заднюю
Dm
При первых признаках дождя
Все юбки задраны
Все овцы загнаны
Ложимся спать в объятия вождя 

Аккорды ставить так от 6-й струны:
F (x 3 3 2 x x)
A5- (x 0 1 2 x x)
Asus4 (x 0 0 2 x x) 
Наверх