Аккорды Послевчера - Ожоги

Добавлено: @romashka
Дата добавления: 23 Января 2023г.
Рейтинг:
0.0
Просмотров: 37
Транспонировать - +
[Вступление]:
2x:
D#m                           F#

e|--------------6------|      e|----------2----------|
b|--------------7------|      b|----------2----------|
G|----------8---8------|      G|----------3----------|
D|--------8-----8------|      D|------4---4----------|
A|------6--------------|      A|----4----------------|
E|-(6)-----------------|      E|--2------------------|

A#(VI)                         B(VII)
e|----------6----------|      e|----------7----------|
b|----------6----------|      b|----------7----------|
G|----------7----------|      G|----------8----------|
D|------8---8----------|      D|------9---9----------|
A|----8----------------|      A|----9----------------|
E|--6------------------|      E|--7------------------|

[Куплет 1]:
D#m              F#
в тёмной комнате полной свечей
 A#(VI)             B(VII)
я считаю свои бесконечные грехи
D#m                 F#
алчность и зависть вызывает мой гнев
 A#(VI)                 B(VII)
и когда я просыпаюсь я снова в огне
D#m                 F#
опять он летает в своих облаках
A#(VI)                B(VII)
все говорят что он снова не прав
D#m                 F#
но в это время я думаю о том же как
A#(VI)                B(VII)
смогу вернуть тебя, но не знаю как

[Припев]:
D#m              F#
Пожар в моей голове
A#(VI)                 B(VII)
не даёт мне уснуть уже пятый день
D#m                 F#
мне бы снотворное и не ясный день
 A#(VI)                 B(VII)
чтобы я смог уснуть, и не думать о тебе
D#m                    F#
о том как вернуть и не резать до костей
      A#(VI)              B(VII)
свои хрупкие пальцы, играющие
D#m F# A#(VI) B(VII)
тебя{*3}

Соло.

[Куплет 2]:
D#m            F#
Но в этот раз, я сделаю так
A#(VI)                         B(VII)
чтобы мне не пришлось лгать никому из вас
D#m            F#
холодная кровь течёт по моим кистям
A#(VI)            B(VII)
уже так поздно что-то менять
D#m                F#
не дают мне думать, не оставят в покое
A#(VI)           B(VII)
острые осколки в моей груди
D#m                F#
они где-то в сердце кричат и стонут
A#(VI)              B(VII)
моля о смерти

[Припев]:
D#m              F#
Пожар в моей голове
A#(VI)                 B(VII)
не даёт мне уснуть уже пятый день
D#m                 F#
мне бы снотворное и не ясный день
 A#(VI)                 B(VII)
чтобы я смог уснуть, и не думать о тебе
D#m                    F#
о том как вернуть и не резать до костей
   A#(VI)              B(VII)
свои хрупкие пальцы, играющие

D#m F# A#(VI) B(VII)

тебя{*3} 

Можно играть восьмеркой.
вступление: D#m(6-5-4-3(4321));F#
(6-5-4-(4321)); A#(6-5-4-(4321));B(6-5-4-(4321))
Наверх