Аккорды «Pulley»

Pulley
Калифорния… Как много она значит в истории панка! Особенно, если речь идёт о середине 90-х и второй волне этого течения. Появилась среди множества самородков в то время и группа Pulley. Коллектив, основанный Скоттом Радински, бывшим лидером Ten Foot Pole (которые, кстати, писались на одном инди-лейбле с тогда ещё малоизвестной группой The Offspring). Стиль группы, уже выпустившей 5 альбомов, можно определить как довольно жёсткий и прямолинейный панк без лишних глупостей. Кстати, вокалист Скотт… Читать полностью... Калифорния… Как много она значит в истории панка! Особенно, если речь идёт о середине 90-х и второй волне этого течения. Появилась среди множества самородков в то время и группа Pulley. Коллектив, основанный Скоттом Радински, бывшим лидером Ten Foot Pole (которые, кстати, писались на одном инди-лейбле с тогда ещё малоизвестной группой The Offspring). Стиль группы, уже выпустившей 5 альбомов, можно определить как довольно жёсткий и прямолинейный панк без лишних глупостей. Кстати, вокалист Скотт успел не только попеть в двух группах, но и поиграть в профессиональной бейсбольной команде Los Angeles Dodgers. Кто знает, может такие профессиональные качества питчера, как тяжёлая рука и постоянное желание в кого-то что-то кидать очень полезны для лидера панк-группы? Скрыть...
Популярные аккорды Pulley:
алфавиту | просмотрам | случайно
  • INTRO:
    -----|------------------------|--------------------------|
    -3-3-|--3---3---4----3--4--3--|-6---4---3----3--3-3-3-3--|
    -3-3-|*-3---3---3----3--3--3--|-3---3---3----3--3-3-3-3-*|
    -3-3-|*-3---3---3----3--3--3--|-3---3---3----3--3-3-3-3-*|
    -----|------------------------|--------------------------|
    -----|------------------------|--------------------------|
    
    Fig.…
  • Legend: 
    // - slide up
     - slide down
    
    Standard Tuning: EBGDAE
    Intro:
    ___________________________________________________________________
    E----------5555-4444-----------------------------5555-4444-77777777------
    B-55555555-----------55555555-----------55555555--------------------5555-
    G-----------------------------6666-4444----------------------------------
    D------------------------------------------------------------------------
    A------------------------------------------------------------------------
    E------------------------------------------------------------------------
    
    E-----------------
    B-----------------
    G--------22-2--3
    D-33-3--22-2--3
    A-33-3--00-0--1
    E-11-1-----------
    ___________________________________________________________________
    Verses:
    _______________________________
    E---------------------
    B---------------------
    G-7777--------3333
    D-7777--3333--3333
    A-5555--3333--1111
    E-------1111-------…
  • verse
    |---------------------------------------
    |---------------------------------------
    |-7-x-x-7-5-5-5-------------------------
    |-7-x-x-7-5-5-5-2-2-2-3-3-3-3-3-5-5-5-3-
    |-5-x-x-5-3-3-3-2-2-2-3-3-3-3-3-5-5-5-3-
    |---------------0-0-0-1-1-1-1-1-3-3-3-1-
    
    chorus
    |---------------------------------------------
    |---------------------------------------------
    |---------------------------------------------
    |-10-10-10-10---------------------------------
    |--8--8--8--8-10-10-10-10-12-12-12-12-8-8-8-8-
    |--------------8--8--8--8-10-10-10-10-6-6-6-6-
    
    |-------------------------------------------------
    |-------------------------------------------------
    |-------------------------------------------------
    |-10-10-10-10-------------------------10-10-10-10-
    |--8--8--8--8-12-12-12-12-10-10-10-10--8--8--8--8-
    |-------------10-10-10-10--8--8--8--8-------------
    
    riff…
  • Part 1
    e|---------------------------------------------------------------------------|
    B|---------------------------------------------------------------------------|
    G|-8---10-10-10-10-10-10-10--------------------------------------------------|
    D|-8---10-10-10-10-10-10-10--------------------------------------------------|
    A|-6---8--8--8—-8--8--8--8---------------------------------------------------|
    E|---------------------------------------------------------------------------|
    
    Part…
  • Riff one:
    |----------------------------------     |-------------
    |----------------------------------     |-------------
    |-12-12-12-11-11-11--9--9--9-------     |-3-3-3-------      chords played between
    |-10-10-10-10-10-10-10-10-10-------…
  • e|--------------------------------------------------------------|
    B|--------------------------------------------------------------|
    G|--------------5-----7--------5-----7-----------5-----5-----7--|
    D|--5-----2-----5-----7--}x2---5-----7-----5-----5-----5-----7--|
    A|--5-----2-----3-----5--------3-----5-----5-----3-----3-----5--|
    E|--3-----0--------------------------------3--------------------|
    
    e|-----|-----|-----|-----|-----|-----|-------------------|
    B|-----|-----|-----|-----|-----|-----|-------------------|
    G|-----|--4--|--5--|-----|-----|-----|--7----------------|
    D|--5--|--4--|--5--|--7--|--5--|--2--|--7--|
    A|--5--|--2--|--3--|--7--|--5--|--2--|--5----------------|
    E|--3--|-----|-----|--5--|--3--|--0--|-------------------|
    
    e|----------------------------------------------------------------------|
    B|----------------------------------------------------------------------|
    G|--------------5-----7--------5-----7-----------5-----5-----7---[end]--|
    D|--5-----2-----5-----7--}x2---5-----7-----5-----5-----5-----7-----5----|
    A|--5-----2-----3-----5--------3-----5-----5-----3-----3-----5-----5----|
    E|--3-----0--------------------------------3-----------------------3----|…
  • ***rest for feedback/drums (0:00 - 0:09)***
    
    Riff A: (twice)
    A--3-3-3--------------------
    E--------4-4-4-1-1-1-3-3-3--
    
    Riff B: (once)
    A--3-3-3-------6-6-6--------
    E--------4-4-4-------6-6-6--
    
    Riff C: (once)
    A--3-3-3--------------------
    E---------4-4-4--1111-1111--
    
    Riff…
  • Riff: play alot
    |----------------------------------------------------------------------------------------
    |----------------------------------------------------------------------------------------
    |-14-14-14-14-14-14-14-14-14-14-14-14-14-14-14-14-14-14-14-14-14-14-14-14-14-14-14-14-14-
    |-14-14-14-14-14-14-14-14-12-12-12-12-12-12-12-11-11-11-11-11-11-11-12-12-12-12-12-12-12-
    |----------------------------------------------------------------------------------------
    |----------------------------------------------------------------------------------------
    Guitar…
  • Intro:  play a few times
    |-------------------------------------------------
    |-------------------------------------------------
    |-5-5-5-5-5---------------------------------------
    |-5-5-5-5-5-5-5-5-5-3-3-3-3-3-5-5-5---------------
    |-3-3-3-3-3-5-5-5-5-3-3-3-3-3-5-5-5---------------
    |-3-3-3-3-3-3-3-3-3-1-1-1-1-1-3-3-3---------------
    
    Verses:…
  • Drop-D Tuned (Low to high: DADGBE)
    
    DROPPED-D CHORDS:
       A5 E5 Do5 C#5 D5
    e |------------------|
    B |------------------|
    G |----------6---7---|
    D |-7--2--0--6---7---|
    A |-7--2--0--4---5---|
    E |-7--2--0----------|
    
    INTRO (play…
  • Riff 
    |------------------------------------------ 
    |------------------------------------------
    |-12-----12-12----12-12-----12-10-10-10-10- 
    |----10--------10--------10----------------
    |------------------------------------------
    |------------------------------------------
    
    Verses:…
  • intro: guitar 1
    |----------------------------------------------|----------------------
    |----------------------------------------------|----------------------
    |----------------------------------------------|----------------------
    |-5-7-9-9-9-9-9-10----5-7-9-9-9-9-9-9-12-10-12-|-5-7-9-9-9-9-9-10-----
    |-5-7-9-9-9-9-9-10-10-5-7-9-9-9-9-9-9-12-10-12-|-5-7-9-9-9-9-9-10-10--
    |-3-5-7-7-7-7-7--8-10-3-5-7-7-7-7-7-7-10--8-10-|-3-5-7-7-7-7-7--8-10--
    |-------------------8--------------------------|------------------8>7-
    play…
  • Intro / Verse:
    
    E-|-------------------------------------------------------------------
    B-|-------------------------------------------------------------------
    G-|--------------------------------------0------------------------3---
    D-|0-0--3-3--2-2-------------3-3--2-2----------0--3-3--2-2------3---3-
    A-|---------------3-3--1--1------------3----------------------1-------
    E-|-------------------------------------------------------------------…
  • Part 1
    e|-------------------------------------------------------------------|
    B|-------------------------------------------------------------------|
    G|-------------------------------------------------------------------|
    D|-------5------7------5---------------------------------------------|
    A|--5555-3-5555-5-5555-3-555-----------------------------------------|
    E|--3333---3333---3333---333-----------------------------------------|
    
    Part…
  • 4 String Bass
    Tuning: E,A,D,G
    
    Intro
    G-----------------------------------------------------------------------
    D----------5-----5--------5-----5---------------------------------------
    A--3-3-3----3-3-----3-3-3---3-3-------------5------5--------5------5----
    E--------------------------------------3-3-3----3-3---3-3-3---3-3-------
    
    G------------------------------------------------5-------5---------5-------5-
    D----------3-----3--------3-----3---------3-3-3-----3-3------3-3-3----3-3----
    A--1-1-1----1-1-----1-1-1---1-1----------------------------------------------
    E----------------------------------------------------------------------------
    
    Verse
    G--------------------------------------------------------------------------
    D---------------------------------------------------------333333333333-----
    A--333333333333---------------------111111111111---------------------------
    E---------------333333333333-----------------------------------------------
    
    Chorus
    G---------------------------------------------------------------------------
    D-------------------555555555555---------------------------333333333333-----
    A--333333333333------------------------555555555555-------------------------
    E---------------------------------------------------------------------------
    
    Outro
    G------------------------------------
    D----3-2-0------3-2-0----------------
    A--------------------------3333------
    E------------------------------------…
  • D-Tune Guitar
    :
    	Guitar 1:Intro
    e|---------------------------------------------------------------|
    B|---------------------------------------------------------------|
    G|--7------------------------7------7----------------------7-----|
    D|--7-------7--------5-------7------7------7-------5-------7-----|
    A|--5-------7--------5-------5------5------7-------5-------5-----|
    D|----------7--------5-------0-------------7-------5-------0-----|
    :	
    	Guitar…
  • Intro: 
    |-----------------------------------------------------------------
    |-----------------------------------------------------------------
    |-------7-7-7-7-7-6-6-6-----------------7-7-6-6-6-------6---------
    |-7-7-7-5-5-5-5-5-4-4-4-9-9-9-9-9-7-7-7-5-5-4-4-4-9-9-9-4-9-9-7-7-…
  • Tuning: E A D G B E (Tune down 1 half step)
    
    Intro:
    
    (Play with heavy palm muting and increase power whilst slowly releasing mute
    towards the end of the second repeat)
    
    e|--------------------------------|--------------------------------|
    B|--------------------------------|--------------------------------|
    G|--------------------------------|--------------------------------|
    D|9-9-9-9-9-9-9-9-9-9-9-9-9-9-9-9-|7-7-7-7-7-7-7-7-7-7-7-7-7-7-7-7-|
    A|7-7-7-7-7-7-7-7-7-7-7-7-7-7-7-7-|5-5-5-5-5-5-5-5-5-5-5-5-5-5-5-5-|
    E|--------------------------------|--------------------------------|
    pm..................................................................
    
    
    e|--------------------------------|--------------------------------|
    B|--------------------------------|--------------------------------|
    G|--------------------------------|--------------------------------|
    D|--------------------------------|--------------------------------|…
  • Intro = F#,A (x5) 
    	E(low)
    	E-F#-A-B-F#-E
    	F#,A (x3)
    	E(low)
    	E-F#-A-B-F#-E-F#(hold it)
    
    	F#-A-B-A
    	F#-A-C#-C
    	F#-A-B-A
    	F#-A-C#-C
    	
    Verse = F#,D,F#,B-A (x2)
    
    Fast Part #1 = (F#-A-F#-E (X3) B-A-F#-E) (x2)
    
    Verse = F#,D,F#,B(harmonic)-A(harmonic)…
Наверх