Аккорды Пузантос - Бумаги

Добавлено: @romashka
Дата добавления: 09 Августа 2022г.
Рейтинг:
0.0
Просмотров: 32
Транспонировать - +
Основная тема: (всю песню)
e||----5--------------------|----5--------------------|
B||-5-----5-----------------|-5-----5-----------------|
G||-----------5-4-2---5-4-2-|-----------5-4-2---4-0-2-|
D||-------------------------|-------------------------|
A||-------------------------|-------------------------|
E||-------------------------|-------------------------|

Текст:

Вы прибыли туда где вас выпустят. Следуйте за мной.
Дальше вы не пройдете, пока не получите бумаги.
Дальше вы не пройдете, пока не получите бумаги.
Дальше вы не пройдете, пока не получите бумаги.
Дальше вы не пройдете, пока не получите бумаги.
Дальше вы не пройдете, пока не получите бумаги.
Дальше вы не пройдете, пока не получите бумаги.

Дальше вы не пройдете, пока не получите бумаги.
Дальше вы не пройдете, пока не получите бумаги.
Дальше вы не пройдете, пока не получите бумаги.
Дальше вы не пройдете, пока не получите бумаги.

Ваш отец - вор.
Ваш двоюродный брат - вор.
Ваша мать дает. Шайка!
Что указать в бумагах?

Дальше вы не пройдете, пока не получите бумаги.
Дальше вы не пройдете, пока не получите бумаги.
Дальше вы не пройдете, пока не получите бумаги.
Дальше вы не пройдете, пока не получите бумаги.

Дальше вы не пройдете, пока не получите бумаги.
Дальше вы не пройдете, пока не получите бумаги.
Дальше вы не пройдете, пока не получите бумаги.
Дальше вы не пройдете, пока не получите бумаги.

Когда выйдете отсюда покажите ваши бумаги капитану гвардии 
чтобы получить пособие.
______________________________
Ещё можно по другому играть:
E||-0--5--0-----------------|
B||-------------------------|
G||-----------5-4-----4-0---|
D||---------------7-------7-|
Наверх