Аккорды Pwr Bttm - I Wanna Boi

Добавлено: @romashka
Дата добавления: 24 Июня 2018г.
Рейтинг:
0.0
Просмотров: 54
Транспонировать - +
Вступление:
e|--------------------|--------------------|---------------------|
B|--------------------|--------------------|---------------------|
G|--------------------|--------------------|---------------------|
D|--------------------|--------------------|---------------------|
A|--------------------|--------------------|--3------------------|
E|--1-----------------|--3-----------------|---------------------|
I wanna boy      to keep the bed warm    while I shower

e|--------------------|--------------------|---------------------|
B|--------------------|--------------------|---------------------|
G|--------------------|--------------------|---------------------|
D|--------------------|--------------------|---------------------|
A|--------------------|--------------------|--3-------0----------|
E|--1-----------------|--3-----------------|---------------------|
I wanna boy      to keep the bed warm while we're watching tv

e|--------------------|--------------------|---------------------|
B|--------------------|--------------------|---------------------|
G|--------------------|--------------------|---------------------|
D|--------------------|--------------------|---------------------|
A|--------------------|--------------------|----3---2---1---0----|
E|--1-----------------|--3-----------------|---------------------|
I wanna boy     to keep the bed warm     When the whole house is freezing

e|--------------------|--------------------|---------------------|
B|--------------------|--------------------|---------------------|
G|--------------------|--------------------|---------------------|
D|--------------------|--------------------|---------------------|
A|--------------------|--------------------|--3------------------|
E|--1-----------------|--3-----------------|---------------------|
I wanna boy       who isn't anything               like me

F                 G              C     Am
I wanna boy who doesn't like to go out shopping
F                   G            Am       C
I wanna boy who thinks it's sexy when my lipstick bleeds
F              G                   C   Am
I wanna boy who can go all night without stopping
F               G              C
I wanna boy who knows exactly what he needs

F G C }x4 

            F
So if you think
                 G
That you're the boy for me
     C               Am
And I'm the boy for you
           F         G     C    Am
Drop me a line at ob8419@bard.edu
           F          G
Tell me little bit about yourself
          C       Am
Send a picture or two
           F
And hurry up now because
      G             C
It's only getting colder

Outro: F G C }x4 
comments powered by Disqus
Наверх