Аккорды Пятна Роршаха - Никотин

Добавлено: @romashka
Дата добавления: 05 Апреля 2021г.
Рейтинг:
0.0
Просмотров: 97
Транспонировать - +
Вступление:
e|------0--------0-------0------0---0------0--------0------
B|------0--------0-------0-------0---------0--------0------
G|---0-----0---0---0---0--0---0---0-----0-----0---0---0---0
D|---------------------------------------------------------
A|-----------3-------7------9-------------------3-------7--
E|-0----------------------------------0--------------------

-0------0---0|
-0-------0---|
--0---0---0--|
-------------|
----9--------|
-------------|

Em                 C
Никотин целует мне лёгкие.
Em                 F#
Сладко, сладко, лезвие, вены.
Em                  C
В мою шею, впиваясь иголками,
Em                 F#
Твой октябрь сулит перемены.
Em                 C
Свой мирок я размажу об небо.
Em                 F#
Соскобли его, если захочешь.
Em                    C
Эту осень ввожу внутривенно.
Em                 F#
И дарю тебе все свои ночи!

Проигрыш  G   F#  Hm
          G   F#  Hm
          F   E  Am
          F   E

Em                 C          
Никотин для меня, как спасение.
Em                 F#
Пусть уже ничего не поможет.
Em                 C  
Мы слепили своё измерение
Em                 F#
Тихой плетью по бархатной коже.
Em                 C 
Зеркалами разрежь мои руки!
Em                   F#
Где я? Кто я? Уже всё равно.
Em                      C
Голоса, как бессвязные звуки.
Em                   F#
Эта жизнь, как немое кино.

Проигрыш  G   F#  Hm
          G   F#  Hm
          F   E  Am
          F   E

Em                 C    
Такты сломаны, ноты мимо.
Em                 F#
Сладко вены лижет морфин.
Em                 C 
Стены криво, жизнь тоже криво.
Em                 F#
Бред, истерика и никотин.

Проигрыш  G   F#  Hm
          G   F#  Hm
          F   E  Am
          F   E 

Партия вступления играется и в завершении песни. Первый и половина второго куплета играется аналогичным перебором, как и во вступлении. Вторая половина второго куплета играется боем, последний куплет тоже перебором. Все проигрыши играются экспрессивно боем.
Наверх