Аккорды Pyrokinesis - Легенда о Богине Гроз

Добавлено: @romashka
Дата добавления: 17 Марта 2022г.
Рейтинг:
0.0
Просмотров: 89
Транспонировать - +
[Вступление]:
e |----7777---------7-8-7-8-7------------7-|
B |---------10-8-10-----------10-8-10------|
G |--9---9----9----9---9---9----9----9-----|
D |----9---9----9----9---9---9----9----9---|
A |----------------------------------------|
E |0---------------------------------------|

e |----------------------------------------|
B |------------8-10-7----------------------|
G |--9---9----9----9---9---9----8----9-----|
D |----9---9----9----9---9---9----9----9---|
A |----------------------------------------|
E |----------------------------------------|


[Куплет 1]:
Em
     Зуб даю, вы б дали диву, легенда не проста, а La Commedia Divina
           Cmaj7                                                             B11
И тут ещё поди вопрос - как влюбилась безответно в Океан Богиня Гроз?
Em
     И память как стена, не забыть, как не отмыть пятна вина
                                      Cmaj7
История одна, что достойна была всецело кина, она  
                     B11
Себе возжелала в руки сердце Океана
                    Em
Окинава дрогнет, грозовые облака её

Тянутся по морю, как резина, и пока не лёг
                    Cmaj7
Ну а в аду огонь, и разверзнутся небеса
                                       B11
Грянет гром, и воспылают небесные телеса
Em
     Так скажем прямо, Богиня Гроз явилась и потребовала сердце Океана
                      Cmaj7
Но сердце Океана у другой
                                            B11                                                       Eaug(no3)
Отвергнутая морем - её горе, её слёзы, её боль, её воля и любовь
                                                      E5
И всяко нам известно, как безумие свойственно всем богам
                                         Cmaj7
Прикоснувшимся к любви, но это ли их есть вина?
                    B11
Любовь божественному противоестественна

[Припев]:
 EE5
 ⬇         ⬇ ⬇⬆⬇ ⬇ ⬇ ⬇⬆
А ты по-настоящему сама любила ли как боги, не сходящие с ума?
     Cmaj7/G                                                            Bsus4/F#
Но в этом ли их есть вина? И любовь всему божественному противоестественна
 EE5
 ⬇         ⬇ ⬇⬆⬇ ⬇ ⬇ ⬇⬆
А ты по-настоящему сама любила ли как боги, не сходящие с ума?
     Cmaj7/G                                                            Bsus4/F#
Но в этом ли их есть вина? И любовь всему божественному противоестественна

[Куплет 2]:
     Em
Её тайна запечатана в конвертик

Она тронулась умом в разы похлеще Бога Смерти
                          Cmaj7
Как обиду бы унять? И её громогласный крик
                                   Bsus4
Был таков, что та едва не потопила материк
                    Em
И размышляя в одночасье, коль не светит Океан, тогда хотя бы его часть
           Cmaj7
Она решила получить любой ценой
                         Bsus4
Отделила от себя обиду, ненависть и боль
                                     Em
И смешав с его морскою пеной, чтобы все они

Вместе превратились в каплю проклятого семени
                         Cmaj7
И срываясь в пляс, она в омерзительном грехе
    Bsus4                                                         Em
Оплодотворит себя сама, но всему предшествует печаль и
                                                                                                                                   Cmaj7
Тьмы партеногенез в её божественном начале, ледяная колыбель - это кров
                                                           Bsus4
Для рождённого из проклятой утробы без души Дитя Ветров
[Проигрыш]
Eaug(no3)                                     E5
И подле колыбели возвела Богиня ледяную цитадель
e |----------8-----------------------7-----|
B |----------------------------------------|
G |----------------------------------------|
D |----------------------------------------|
A |7---------------------------------------|
E |0-----------------------0---------------|
           Cmaj7
Какая боль, её родитель,
                                        B11
Как ни хотела не смогла свою химеру полюбить и заперла во льдах

e |2h3P2----------------------------------|
B |-------4⌒5----0h1--0-----0------------|
G |3----------------------2------0h2P0----|
D |--------------------2----------------4-|
A |---------------------------------------|
E |---------------------------------------|

[Припев]:
 EE5
 ⬇         ⬇ ⬇⬆⬇ ⬇ ⬇ ⬇⬆
А ты по-настоящему сама любила ли как боги, не сходящие с ума?
     Cmaj7/G                                                            Bsus4/F#
Но в этом ли их есть вина? И любовь всему божественному противоестественна
 EE5
 ⬇         ⬇ ⬇⬆⬇ ⬇ ⬇ ⬇⬆
А ты по-настоящему сама любила ли как боги, не сходящие с ума?
     Cmaj7/G                                                            Bsus4/F#
Но в этом ли их есть вина? И любовь всему божественному противоестественна
[Аутро]
e |--7-7-7----8-7-----12-8-7---------|
B |-------10------10---------10-8-10-|
G |----------------------------------|
D |----------------------------------|
A |7---------------------------------|
E |0---------------------------------|

e |0------3-5-2----------------------|
B |0------------4--------------------|
G |0------------4--------------------|
D |5------------2--------------------|
A |3---------------------------------|
E |----------------------------------|

e |--7-7-7----8-7-----12-8-7---------|
B |-------10------10---------10-8-10-|
G |----------------------------------|
D |----------------------------------|
A |7---------------------------------|
E |0---------------------------------|

e |2h3P2---------------------------------------|
B |-------4⌒5----0h1--0-----0-----------------|
G |3----------------------2------0h2P0---------|
D |--------------------2----------------4----2-|
A |--------------------------------------------|
E |--------------------------------------------| 

Бой - ⬇⬇⬇ ⬇⬆⬇ ⬇ ⬇ ⬇⬆
→ - Скольжение
h - Hammer-on (Удар пальцем левой руки по струне)
P - Pull-off (Отщипывание(оттягивание) струны пальцем левой руки)
⌒ - Скольжение
Наверх